» » »

Beatles, All My Loving Bass tabs (ver.5)

Artists:  A B C D E F G H I J K L M N O P Q R S T U V W X Y Z # 

All My Loving Bass tabs (ver.5)

Beatles Tabs
 Rating:
4/5 (4 votes)
All My Loving lessons Tabs too difficult? Try these video lessons and learn fast
                ALL MY LOVING

Written by Paul McCartney

VERSE
  t=157
G|---------------------------------|---------------------------------|
D|---------------------------------|---------------------------------|
A|---------------------------------|---------------------------------|
E|---------------------------------|---------------------------------|
                                                     Close   your eyes

G|---------------------------------|---------------------------------|
D|-4-------2-------1---------------|---------------------------------|
A|-------------------------4-------|-2-------0-----------------------|
E|---------------------------------|-----------------4-------2-------|
               and I’ll        kiss      you                 tomorrow

G|---------------------------------|---------------------------------|
D|---------------------------------|---------------------------------|
A|-----------------2---------------|-4-------4---------------4-------|
E|-0-------4---------------4-------|-----------------4---------------|
                       I’ll    miss      you                 Remember

G|---------------------------------|---------------------------------|
D|---------------------------------|-4-------4---------------4-------|
A|-0---------------4-------0-------|-----------------4---------------|
E|---------------------------------|---------------------------------|
                           I’ll      always                  be

G|---------------------------------|---------------------------------|
D|---------------------------------|---------------------------------|
A|-5-------5-------5-------5-------|-2-------2-------2-------2-------|
E|---------------------------------|---------------------------------|
   true                                              And     then

  00:13

G|---------------------------------|---------------------------------|
D|-4-------2-------1---------------|---------------------------------|
A|-------------------------4-------|-2-------0-----------------------|
E|---------------------------------|-----------------4-------2-------|
   while           I’m     away                      I’ll    write

G|---------------------------------|---------------------------------|
D|---------------------------------|---------------------------------|
A|-----------------2---------------|-4-------4---------------4-------|
E|-0-------4---------------4-------|-----------------4---------------|
   home            ev’ry       day                       and I’ll

G|---------------------------------|---------------------------------|
D|-------------------------2-------|-----------------4---------------|
A|-0---------------4---------------|-2-----------------------2-------|
E|---------------------------------|---------------------------------|
   send            all     my        loving                  to  you

G|---------------------------------|---------------------------------|
D|-2-------------------------------|---------------------------------|
A|---------4-------2---------------|---------------------------------|
E|-------------------------4-------|-0-------------------------------|
                                                     I’ll    pretend

VERSE

  00:25

G|---------------------------------|---------------------------------|
D|-4-------2-------1-------4-------|---------------------------------|
A|---------------------------------|-2-------0-----------------------|
E|---------------------------------|-----------------4-------2-------|
              that I’m         kissing                       the

G|---------------------------------|---------------------------------|
D|---------------------------------|---------------------------------|
A|-----------------2---------------|-4-----------------------4-------|
E|-0-------4---------------4-------|-----------------4---------------|
   lips            I   am      missing                       and

G|---------------------------------|---------------------------------|
D|-------------------------2-------|-4-----------------------4-------|
A|-0---------------4---------------|-----------------4---------------|
E|---------------------------------|---------------------------------|
   hope        that        my        dreams      will        come

G|---------------------------------|---------------------------------|
D|---------------------------------|---------------------------------|
A|-5-------5-------5-------5-------|-2-------0-----------------------|
E|---------------------------------|-----------------4-------2-------|
   true                                              And     then

  00:38

G|---------------------------------|---------------------------------|
D|-4-------2-------1---------------|---------------------------------|
A|-------------------------4-------|-2-------0-----------------------|
E|---------------------------------|-----------------4-------2-------|
   while           I’m     away                      I’ll    write

G|---------------------------------|---------------------------------|
D|---------------------------------|---------------------------------|
A|-----------------2---------------|-4-------4---------------4-------|
E|-0-------4---------------4-------|-----------------4---------------|
   home            ev’ry       day                       and I’ll

G|---------------------------------|---------------------------------|
D|-------------------------2-------|-----------------4---------------|
A|-0---------------4---------------|-2-----------------------2-------|
E|---------------------------------|---------------------------------|
   send            all     my        loving                  to  you

G|---------------------------------|---------------------------------|
D|-2-------------------------------|---------------------------------|
A|---------4-------2---------------|---------------------------------|
E|-------------------------4-------|-0-------------------------------|
                                                     All     my

CHORUS

  00:50

G|---------------------------------|---------------------------------|
D|---------------------------------|---------------------------------|
A|-4-------4-----------------------|-3-------3---------------3-------|
E|-----------------4-------4-------|-----------------4---------------|
   loving                      I             will    send    to   you

G|---------------------------------|---------------------------------|
D|-2-------2-----------------------|-2-------2---------------2-------|
A|-----------------2-------2-------|-----------------2---------------|
E|---------------------------------|---------------------------------|
                                                 All         my

G|---------------------------------|---------------------------------|
D|---------------------------------|---------------------------------|
A|-4-------4-----------------------|-3-------3---------------3-------|
E|-----------------4-------4-------|-----------------4---------------|
   loving                      darling           I’ll        be  true

G|---------------------------------|---------------------------------|
D|-2-------------------------------|---------------------------------|
A|---------4-------2---------------|---------------------------------|
E|-------------------------4-------|-0-------------------------------|


GUITAR SOLO

  01:03

G|---------------------------------|-2-------------------------------|
D|-----------------2-------4-------|---------4-------2---------------|
A|-0-------4-----------------------|-------------------------4-------|
E|---------------------------------|---------------------------------|


G|---------------------------------|---------------------------------|
D|-2-------------------------------|---------------------------------|
A|---------4-------2---------------|-----------------2-------4-------|
E|-------------------------4-------|-0-------4-----------------------|


G|---------------------------------|---------------------------------|
D|-4-------2-------1---------------|---------------------------------|
A|-------------------------4-------|-2-------0-----------------------|
E|---------------------------------|-----------------4-------2-------|


G|---------------------------------|---------------------------------|
D|-2-------------------------------|---------------------------------|
A|---------4-------2---------------|---------------------------------|
E|-------------------------4-------|-0-------------------------------|
                                                     Close   your eyes

VERSE

  01:15

G|---------------------------------|---------------------------------|
D|-4-------2-------1---------------|---------------------------------|
A|-------------------------4-------|-2-------0-----------------------|
E|---------------------------------|-----------------4-------2-------|
               and I’ll        kiss      you                 tomorrow

G|---------------------------------|---------------------------------|
D|---------------------------------|-4-----------------------4-------|
A|-----------------2---------------|-----------------4---------------|
E|-0-------4---------------4-------|---------------------------------|
                       I’ll    miss      you                 Remember

G|---------------------------------|---------------------------------|
D|-------------------------2-------|-4-------4---------------4-------|
A|-0---------------4---------------|-----------------4---------------|
E|---------------------------------|---------------------------------|
                           I’ll      always                  be

G|---------------------------------|---------------------------------|
D|---------------------------------|---------------------------------|
A|-5-------5-------5-------5-------|-2-------0-----------------------|
E|---------------------------------|-----------------4-------2-------|
   true                                              And     then

  01:27

G|---------------------------------|---------------------------------|
D|-4-------2-------1---------------|---------------------------------|
A|-------------------------4-------|-2-------0-----------------------|
E|---------------------------------|-----------------4-------2-------|
   while           I’m     away                      I’ll    write

G|---------------------------------|---------------------------------|
D|---------------------------------|---------------------------------|
A|-----------------2---------------|-4-------4---------------4-------|
E|-0-------4---------------4-------|-----------------4---------------|
   home            ev’ry       day                       and I’ll

G|---------------------------------|---------------------------------|
D|-------------------------2-------|-----------------4---------------|
A|-0---------------4---------------|-2-----------------------2-------|
E|---------------------------------|---------------------------------|
   send            all     my        loving                  to  you

G|---------------------------------|---------------------------------|
D|-2-------------------------------|---------------------------------|
A|---------4-------2---------------|---------------------------------|
E|-------------------------4-------|-0-------------------------------|
                                                     All     my

CHORUS

  01:40

G|---------------------------------|---------------------------------|
D|---------------------------------|---------------------------------|
A|-4-------4-----------------------|-3-------3---------------3-------|
E|-----------------4-------4-------|-----------------4---------------|
   loving                      I             will    send    to   you

G|---------------------------------|---------------------------------|
D|-2-------2-----------------------|-2-----------------------2-------|
A|-----------------2-------2-------|-----------------2---------------|
E|---------------------------------|---------------------------------|
                                                 All         my

G|---------------------------------|---------------------------------|
D|---------------------------------|---------------------------------|
A|-4-------4-----------------------|-3-------3---------------3-------|
E|-----------------4-------4-------|-----------------4---------------|
   loving                      darling           I’ll        be  true

G|---------------------------------|---------------------------------|
D|-2-------2-----------------------|-2-------2---------------2-------|
A|-----------------2-------2-------|-----------------2---------------|
E|---------------------------------|---------------------------------|
                                                 All         my

  01:52

G|---------------------------------|---------------------------------|
D|---------------------------------|---------------------------------|
A|-4-------4-----------------------|-4-------4---------------4-------|
E|-----------------4-------4-------|-----------------4---------------|
   loving                                        all             my

G|---------------------------------|---------------------------------|
D|-2-------2-----------------------|-2-------2---------------2-------|
A|-----------------2-------2-------|-----------------2---------------|
E|---------------------------------|---------------------------------|
               loving                ooh             all  my

G|---------------------------------|---------------------------------|
D|---------------------------------|---------------------------------|
A|-4-------4-----------------------|-4-------4-----------------------|
E|-----------------4-------4-------|-----------------4-------4-------|
   loving                                 I    will  send        to

G|---------------------------------|---------------------------------|
D|-2-------2-----------------------|-2-------------------------------|
A|-----------------2-------2-------|---------------------------------|
E|---------------------------------|---------------------------------|
       you
            
Submit corrections

comments powered by Disqus
↑ Back to top | Beatles Bass for All My Loving. Lyrics for acoustic guitar and electric guitar. Tablatures and chords are parodies/interpretations of the original songs. You may use it for private study, scholarship, research or language learning purposes only