» » »

Beatles, A Hard Day's Night Tabs (ver.6)

Artists:  A B C D E F G H I J K L M N O P Q R S T U V W X Y Z # 

A Hard Day's Night Tabs (ver.6)

Beatles Tabs
 Rating:
4/5 (4 votes)
A Hard Day's Night lessons Tabs too difficult? Try these video lessons and learn fast
                (4)
  This is my first tab, the timing isn't right on, but if you listen to the     song 
get it. It's a pretty simply song, including the solo.

  |----3--------------------------------------------------------|
  |----3--------------------------------------------------------|
  |----5--------------------------------------------------------|
  |----3--------------------------------------------------------|
  |----5--------------------------------------------------------|
  |----3--------------------------------------------------------|

  |------------3----0-----3--------------------1--------------3-|
  |------------0----1-----2--------------------1--------------0-|
  |------------0----0-----0--------------------2--------------0-|
  |------------0----2-----0--------------------3--------------0-|
  |------------2----3-----2--------------------3--------------2-|
  |------------3----------3--------------------1--------------3-|
   It's been a hard day's night, and I've been working like a dog


  |-----------------0-----3--------------------1---------------3-|
  |-----------------1-----0--------------------1---------------0-|
  |-----------------0-----0--------------------2---------------0-|
  |-----------------2-----0--------------------3---------------0-|
  |-----------------3-----2--------------------3---------------2-|
  |-----------------------3--------------------1---------------3-|
   It's been a hard day's night, and I've been sleeping like a log

  |---------------0-----------------------2----------------------|
  |---------------1-----------------------3----------------------|
  |---------------0-----------------------2----------------------|
  |---------------2-----------------------0----------------------|
  |---------------3----------------------------------------------|
  |--------------------------------------------------------------|
   But when I get home to you, I find the things that you do
  |-------------3----1-3-----------------------------------------|
  |-------------0----0-0-----------------------------------------|
  |-------------0----0-0-----------------------------------------|
  |-------------0----2-0-----------------------------------------|
  |-------------2----3-2-----------------------------------------|
  |-------------3------3-----------------------------------------|
   Will make me feel alright
  |------------3----0-----3--------------------1--------------3-|
  |------------0----1-----2--------------------1--------------0-|
  |------------0----0-----0--------------------2--------------0-|
  |------------0----2-----0--------------------3--------------0-|
  |------------2----3-----2--------------------3--------------2-|
  |------------3----------3--------------------1--------------3-|
    You know I work all   day, to get money to buy you   things




  |-----------------0-----3----------------------------------1---------------3-|
  |-----------------1-----0----------------------------------1---------------0-|
  |-----------------0-----0----------------------------------2---------------0-|
  |-----------------2-----0----------------------------------3---------------0-|
  |-----------------3-----2----------------------------------3---------------2-|
  |-----------------------3----------------------------------1---------------3-|
  And it's worth it just  to hear you say, you're gonna give me      everything

  |----------------0----------------------------2----------------------|
  |----------------1----------------------------3----------------------|
  |----------------0----------------------------2----------------------|
  |----------------2----------------------------0----------------------|
  |----------------3---------------------------------------------------|
  |--------------------------------------------------------------------|
   So why on earth should I moan, 'cause when I get you alone
  |-------------3----1-3-----------------------------------------|
  |-------------0----0-0-----------------------------------------|
  |-------------0----0-0-----------------------------------------|
  |-------------0----2-0-----------------------------------------|
  |-------------2----3-2-----------------------------------------|
  |-------------3------3-----------------------------------------|
   You know I   feel okay
  |---------2----0----------------------2------------------------|
  |---------3----0----------------------3------------------------|
  |---------4----0----------------------4------------------------|
  |---------4----2----------------------4------------------------|
  |---------2----2----------------------2------------------------|
  |--------------0-----------------------------------------------|
   When I'm home everything seems to be right
  |---------3----0----------------------0------2-----------------|
  |---------0----0----------------------1------1-----------------|
  |---------0----0----------------------2------2-----------------|
  |---------0----2----------------------2------0-----------------|
  |---------2----2----------------------0------------------------|
  |---------3----0-----------------------------------------------|
  When I'm home, feeling you holding me tight, tight
  |------------3----0-----3--------------------1--------------3-|
  |------------0----1-----2--------------------1--------------0-|
  |------------0----0-----0--------------------2--------------0-|
  |------------0----2-----0--------------------3--------------0-|
  |------------2----3-----2--------------------3--------------2-|
  |------------3----------3--------------------1--------------3-|
   It's been a hard day's night, and I've been working like a dog



  |-----------------0-----3--------------------1---------------3-|
  |-----------------1-----0--------------------1---------------0-|
  |-----------------0-----0--------------------2---------------0-|
  |-----------------2-----0--------------------3---------------0-|
  |-----------------3-----2--------------------3---------------2-|
  |-----------------------3--------------------1---------------3-|
   It's been a hard day's night, and I've been sleeping like a log

  |---------------0-----------------------2----------------------|
  |---------------1-----------------------3----------------------|
  |---------------0-----------------------2----------------------|
  |---------------2-----------------------0----------------------|
  |---------------3----------------------------------------------|
  |--------------------------------------------------------------|
   But when I get home to you, I find the things that you do
  |-------------3----1-3-----------------------------------------|
  |-------------0----0-0-----------------------------------------|
  |-------------0----0-0-----------------------------------------|
  |-------------0----2-0-----------------------------------------|
  |-------------2----3-2-----------------------------------------|
  |-------------3------3-----------------------------------------|
   Will make me feel alright,  Owwwwwwwwwwwwwwwww

  |------------------------------|------1-----1-----1-----1----------|
  |--------------------1-------3-|--1-3---1-3---1-3---1-3---3--------|
  |----0-------0---3-------3-----|----------------------------3---0--|
  |------------------------------|-----------------------------------|
  |------------------------------|-----------------------------------|
  |------------------------------|-----------------------------------|

  |------------------------------|------1-----1-----1-----1----------|
  |--------------------1-------3-|--1-3---1-3---1-3---1-3---3--------|
  |----0-------0---3-------3-----|----------------------------3---0--|
  |------------------------------|-----------------------------------|
  |------------------------------|-----------------------------------|
  |------------------------------|-----------------------------------|

  |----------------0----------------------------2----------------------|
  |----------------1----------------------------3----------------------|
  |----------------0----------------------------2----------------------|
  |----------------2----------------------------0----------------------|
  |----------------3---------------------------------------------------|
  |--------------------------------------------------------------------|
   So why on earth should I moan, 'cause when I get you alone
  |-------------3----1-3-----------------------------------------|
  |-------------0----0-0-----------------------------------------|
  |-------------0----0-0-----------------------------------------|
  |-------------0----2-0-----------------------------------------|
  |-------------2----3-2-----------------------------------------|
  |-------------3------3-----------------------------------------|
   You know I   feel okay

  |---------2----0----------------------2------------------------|
  |---------3----0----------------------3------------------------|
  |---------4----0----------------------4------------------------|
  |---------4----2----------------------4------------------------|
  |---------2----2----------------------2------------------------|
  |--------------0-----------------------------------------------|
   When I'm home everything seems to be right
  |---------3----0----------------------0------2-----------------|
  |---------0----0----------------------1------1-----------------|
  |---------0----0----------------------2------2-----------------|
  |---------0----2----------------------2------0-----------------|
  |---------2----2----------------------0------------------------|
  |---------3----0-----------------------------------------------|
  When I'm home, feeling you holding me tight, tight
  |------------3----0-----3--------------------1--------------3-|
  |------------0----1-----2--------------------1--------------0-|
  |------------0----0-----0--------------------2--------------0-|
  |------------0----2-----0--------------------3--------------0-|
  |------------2----3-----2--------------------3--------------2-|
  |------------3----------3--------------------1--------------3-|
   It's been a hard day's night, and I've been working like a dog


  |-----------------0-----3--------------------1---------------3-|
  |-----------------1-----0--------------------1---------------0-|
  |-----------------0-----0--------------------2---------------0-|
  |-----------------2-----0--------------------3---------------0-|
  |-----------------3-----2--------------------3---------------2-|
  |-----------------------3--------------------1---------------3-|
   It's been a hard day's night, and I've been sleeping like a log

  |---------------0-----------------------2----------------------|
  |---------------1-----------------------3----------------------|
  |---------------0-----------------------2----------------------|
  |---------------2-----------------------0----------------------|
  |---------------3----------------------------------------------|
  |--------------------------------------------------------------|
   But when I get home to you, I find the things that you do
  |-------------3----1-3-----------------------------------------|
  |-------------0----0-0-----------------------------------------|
  |-------------0----0-0-----------------------------------------|
  |-------------0----2-0-----------------------------------------|
  |-------------2----3-2-----------------------------------------|
  |-------------3------3-----------------------------------------|
   Will make me feel alright



  |-------------3----1-3-----------------------------------------|
  |-------------0----0-0-----------------------------------------|
  |-------------0----0-0-----------------------------------------|
  |-------------0----2-0-----------------------------------------|
  |-------------2----3-2-----------------------------------------|
  |-------------3------3-----------------------------------------|
   You know I   feel alright
  |-------------3----1-3-|
  |-------------0----0-0-|
  |-------------0----0-0-|
  |-------------0----2-0-|
  |-------------2----3-2-|
  |-------------3------3-|
   You know I   feel al
  |--1-------3-------1--------3------1-------3-----|
  |--1-1---1---1---1---1---1---1---1---1---1---1---|
  |--2---2-------2-------2-------2-------2-------2-|
  |------------------------------------------------|
  |------------------------------------------------|
  |------------------------------------------------|
    right

  |--1-------3-------1--------3------1-------3-----|
  |--1-1---1---1---1---1---1---1---1---1---1---1---|
  |--2---2-------2-------2-------2-------2-------2-|
  |------------------------------------------------|
  |------------------------------------------------|
  |------------------------------------------------|
            
Submit corrections

comments powered by Disqus
↑ Back to top | Beatles Tabs for A Hard Day's Night. Lyrics for acoustic guitar and electric guitar. Tablatures and chords are parodies/interpretations of the original songs. You may use it for private study, scholarship, research or language learning purposes only