>
 >
A Day In The Life 3

A Day In The Life 3 Bass Tabs

Beatles - A Day In The Life 3 chords, tabs, tablatures, lyrics

Guitar lessons | Add/correct | Request | Top 50 tabs Artists:  A B C D E F G H I J K L M N O P Q R S T U V W X Y Z 0-9

A Day In The Life 3 Bass Tabs – Beatles

CD, Sheet music, Poster

Do you like A Day In The Life 3? Share with your friends now
Bass TabsBass Tabs v2Bass Tabs v3ChordsChords v2Chords v3Chords v4TabsTabs v2Tabs v3Ukulele
  --------------------------------------------------------------

   THE BEATLES - A DAY IN THE LIFE (J Lennon) Acetate, oh shit
                 version taken from THE ALTERNATE SGT. PEPPER.

  --------------------------------------------------------------





    INTRO
    00:00 ...


    VERSE
    00:13 ...

   I read the news today oh boy
   About a lucky man who made the grade
   And though the news was rather sad


    00:31

  G|---------------------------------|---------------------------------|
  D|-----------------3---------------|-2---------------0---------------|
  A|-3-------------------------------|---------------------------------|
  E|---------------------------------|---------------------------------|
         well    just    to
             I       had  laugh




  G|---------------------------------|---------------------------------|
  D|-----------------3---------------|-2-----------0---------------0---|
  A|-3-------------------------------|-----------------3---------------|
  E|---------------------------------|---------------------------------|
         I   saw the photograph




  G|---------------------------------|---------------------------------|
  D|-5---------------4---------------|-2---------------0---------------|
  A|---------------------------------|---------------------------------|
  E|---------------------------------|---------------------------------|
         He  blew  mind  out in    car
               his             a




  G|---------------------------------|---------------------------------|
  D|---------------------------------|---------------------------------|
  A|-3---3---3---3---2---2---2---2---|-0---0---0---0---0---0---0---0---|
  E|---------------------------------|---------------------------------|
         he  didn't notice   that  lights  had changed
                                 the




  G|---------------------------------|---------------------------------|
  D|-----5---5---5---4---4---4---4---|-2---2---2---2---0---0---0---0---|
  A|---------------------------------|---------------------------------|
  E|-3-------------------------------|---------------------------------|
         a crowd of  people  stood     stared
                                and




  G|---------------------------------|---------------------------------|
  D|-----------------3---3---3---3---|-2---2---2---2---0---0---0---0---|
  A|-3-------3---3-------------------|---------------------------------|
  E|---------------------------------|---------------------------------|
         they'd  his face              nobody  really  he  from    of
             seen        before              was   sure  was the     Lords
                                                     if        House




  G|---------------------------------|
  D|---------------------------------|
  A|-3---3---3---3---3---3---3---3---|
  E|---------------------------------|





    VERSE
    01:11

  G|---------------------------------|---------------------------------|
  D|-5---------------4---------------|-2---------------0---------------|
  A|---------------------------------|---------------------------------|
  E|---------------------------------|---------------------------------|
         I   saw a   film today  oh        boy




  G|---------------------------------|---------------------------------|
  D|---------------------------------|---------------------------------|
  A|-3---------------2---------------|-0---0-------0---0---0---0---0---|
  E|---------------------------------|---------------------------------|
         The English         had just  won the war
                   army




  G|---------------------------------|---------------------------------|
  D|-5---------------4---------------|-2---------------0-----x-0-------|
  A|---------------------------------|---------------------------------|
  E|---------------------------------|---------------------------------|
         a crowd of  people  turned
                                 away




  G|---------------------------------|---------------------------------|
  D|---------------------------------|---------------------------------|
  A|-3-------------------------------|-----------------5---5---5---5---|
  E|-----------------1---1---1---1---|-0-------------------------------|
         but I  just had to look               having  read    the




  G|---------------------------------|---------------------------------|
  D|---------------------------------|-----------------4---------------|
  A|-3---3---3---3---3---3---3---3---|-3-------3-----------------------|
  E|---------------------------------|---------------------------------|
     book                        I'd   love    to      turn




  G|---------------------------------|-----------------9-~-------------|
  D|-x---5-----------7---------------|-9-------------------------------|
  A|---------------------------------|---------------------------------|
  E|---------------------------------|---------------------------------|
     you             on
                                                    ...five




    INTERLUDE
    01:48

  G|-9-~~~---------------------------|-9-~~~---------------------------|
  D|---------------------------------|---------------------------------|
  A|---------------------------------|---------------------------------|
  E|---------------------------------|---------------------------------|
     six             seven             eight           nine




  G|-9-~---------9-~---------9-~-----|---------9-~---------9-~---------|
  D|---------------------------------|---------------------------------|
  A|---------------------------------|---------------------------------|
  E|---------------------------------|---------------------------------|
     ten             eleven            twelve          thirteen




  G|-----9-~-----9-~-----9-~---------|---------9-~---------9-~---------|
  D|---------------------------------|---------------------------------|
  A|---------------------------------|---------------------------------|
  E|---------------------------------|---------------------------------|
     fourteen        fifteen           sixteen         seventeen




  G|---------9-~-----9---9---9---9---|-9---9---9---9---9---9---9---9---|
  D|---------------------------------|---------------------------------|
  A|---------------------------------|---------------------------------|
  E|---------------------------------|---------------------------------|
     eighteen        nineteen          twenty




  G|-9---9---9---9---9---9---9---9---|-9---9---9---9---9---9---9---9-\-|
  D|---------------------------------|---------------------------------|
  A|---------------------------------|---------------------------------|
  E|---------------------------------|---------------------------------|





  G|---------------------------------|
  D|---------------------------------|
  A|-7---7---7---7---7---7---7---7---|
  E|---------------------------------|
                                 Woke
                                   up




    BRIDGE
    02:21

  G|---------------------------------|---------------------------------|
  D|---------------------------------|---------------------------------|
  A|---------7---------------7-------|---------------------------------|
  E|-0---0-----------0---------------|-0---0---0---0---0---0---0---0---|
                         fell    of    bed                     dragged
                             out                                   a




  G|---------------------------------|-------------------------7-------|
  D|---------------------------------|-------------7-------------------|
  A|---------------------------------|-5-------------------------------|
  E|-0---0---0---0---0---0---0---0---|---------------------------------|
     comb        across      my  head




  G|---------------------------------|---------------------------------|
  D|-----7-------------------7-------|---------------------------------|
  A|-----------------5---------------|-7-------6-------4-------3-------|
  E|---------------------------------|---------------------------------|
                             found     way down        stairs  and drank
                                 my




  G|---------------------------------|---------------------------------|
  D|-------------------------4-------|---------------------------------|
  A|-2-------2-------2---------------|-7-------6-------4-------3-------|
  E|---------------------------------|---------------------------------|
         a   cup                 and   looking     up              I




  G|---------------------------------|---------------------------------|
  D|---------------------------------|---------4---------------4-------|
  A|-2---1---2---1---2---1---2---1---|-2---------------2---2-----------|
  E|---------------------------------|---------------------------------|
     noticed I   was late                                      found
                                                                   my




  G|---------------------------------|---------------------------------|
  D|---------------------------------|---------------------------------|
  A|-7-------6-------4---------------|-7-------7-----------------------|
  E|-------------------------7-------|-----------------9-------7-------|
     coat        and grabbed my  hat                           made the




  G|---------------------------------|-------------------------7-------|
  D|---------------------------------|-------------7-------------------|
  A|-7-------6-------4---------------|-5-------------------------------|
  E|-------------------------7-------|---------------------------------|
     but         in  seconds     flat




  G|---------------------------------|---------------------------------|
  D|-----7-------------------7-------|---------------------------------|
  A|-----------------5---------------|-7-------6-------4-------3-------|
  E|---------------------------------|---------------------------------|
                             found     way up          stairs  and
                                 my




  G|-----------------4---------------|---------------------------------|
  D|---------4---------------4-------|---------------------------------|
  A|-2-------------------------------|-7-------6-------4-------3-------|
  E|---------------------------------|---------------------------------|
     had a           smoke       and   somebody    spoke   and I   went




  G|---------------------------------|
  D|---------------------------------|
  A|-2-------2-------2-------2-------|
  E|---------------------------------|
     into    a   dream




    INTERLUDE
    02:48

  G|---------------------------------|---------------------------------|
  D|---------------------2---5---2---|---------------------------------|
  A|-3---3---3---3---3---------------|-------------------------2---5---|
  E|---------------------------------|-3---3---3---3---3---3-----------|
         oh  shit




  G|---------------------------------|---------------------------------|
  D|-----------------------------4---|-7---7---7---7---7---7---7---7---|
  A|-5---5---5---5---5---5---5-------|---------------------------------|
  E|---------------------------------|---------------------------------|





  G|---------------------------------|---------------------------------|
  D|---------------------------------|---------------------------------|
  A|-7---7---7---7---7---7---7---7---|-3---3---3---3---3---3---3---3---|
  E|---------------------------------|---------------------------------|





  G|---------------------------------|---------------------------------|
  D|---------------------------------|-----------------------------4---|
  A|-----------------------------2---|-5---5---5---5---5---5---5-------|
  E|-3---3---3---3---3---3---3-------|---------------------------------|





  G|---------------------------------|---------------------------------|
  D|-7---7---7---7---7---7-------7---|---------------------------------|
  A|-------------------------7-------|-7---7---7---5---3-----------5---|
  E|---------------------------------|---------------------------------|





    VERSE
    03:18

  G|---------------------------------|---------------------------------|
  D|-5-------5-------4-------4-------|-2-------2-------0-------0---0---|
  A|---------------------------------|---------------------------------|
  E|---------------------------------|---------------------------------|
         I   read  news  today   oh    boy
                 the




  G|---------------------------------|---------------------------------|
  D|---------------------------------|---------------------------------|
  A|-3---3---3---3---2---2---2---2---|-0---0-----------0---0---0---7---|
  E|---------------------------------|---------------------------------|
         four      holes in  Blackburn Lancashire
             thousand




  G|---------------------------------|---------------------------------|
  D|-5-------5-------4-------------0-|-2---------------0------/2---0---|
  A|---------------------------------|---------------------------------|
  E|---------------------------------|---------------------------------|
         and though      were          small
                 the       rather
                   holes




  G|---------------------------------|---------------------------------|
  D|---------------------------------|---------------------------------|
  A|-3-------------------------------|-----------------5---5---5---5---|
  E|-----------------1---1---1-------|-0-------0---0-------------------|
         they    to count  all         now know  holes takes   Albert Hall
             had         them            they  many  it  to  the
                                             how           fill




  G|---------------------------------|---------------------------------|
  D|---------------------------------|-----------------4---------------|
  A|-3---3---3---3---3---3---3---3---|-3-------3-----------------------|
  E|---------------------------------|---------------------------------|
                                 I'd   love    to      turn




  G|---------------------------------|-----------------9---------------|
  D|-5---------------7---------------|-9-------------------------------|
  A|---------------------------------|---------------------------------|
  E|---------------------------------|---------------------------------|
     you             on




    OUTRO
    03:52

  G|-9---------------9---------------|-9---------------9---------------|
  D|---------------------------------|---------------------------------|
  A|---------------------------------|---------------------------------|
  E|---------------------------------|---------------------------------|





  G|-9---------------9---------------|-9---------------9---------------|
  D|---------------------------------|---------------------------------|
  A|---------------------------------|---------------------------------|
  E|---------------------------------|---------------------------------|





  G|-9-------------------------------|---------------------------------|
  D|---------------------------------|---------------------------------|
  A|---------------------------------|---------------------------------|
  E|---------------------------------|---------------------------------| ....





  G|-21-\-\-\-\-\-\-\-\-\-\-\-\-\-\-\|---------------------------------|
  D|---------------------------------|---------15-\-\-\-\-\-\-\-\-\-\-\|
  A|---------------------------------|---------------------------------|
  E|---------------------------------|---------------------------------| ...





Comments


Popular Beatles tabs & chords
Bad Boy Bass Tabs
Day Tripper 3 Bass Tabs
A Little Helpf From My Frends Chords
Because I Know You Love Me So 1 Chords
Child Of Nature Chords
Help! Chords
I Feel Fine Chords
And Your Bird Can Sing 1 Tabs
Hello, Little Girl Tabs
Her Majesty 2 Tabs


Song lyrics



↑ Back to top | Tablatures and chords are parodies/interpretations of the original songs. You may use it for private study, scholarship, research or language learning purposes only
© 2014 AZChords.com Contact us | Privacy policy | DMCA | Add/correct tabs | Request tabs | Top 50 tabs