» » »

Beatles, Act Naturally Bass tabs (ver.1)

Artists:  A B C D E F G H I J K L M N O P Q R S T U V W X Y Z # 

Act Naturally Bass tabs (ver.1)

Beatles Tabs
 Rating:
4/5 (4 votes)
Act Naturally lessons Tabs too difficult? Try these video lessons and learn fast
1
                Act Naturally
The Beatles
Written by Voni Morrison and Johnny Russell; released on "Help!" album.

A great country-rockabilly song, sung by Ringo.

Intro:
G|------ ------ ------ ------|------ ------ ------ ------|
D|---------------------------|---------------------------|
A|---------------------------|---------------------------|
E|---------------------------|---------------------------|



G|------ ------ ------ ------|------ ------ ------ ------|
D|---------------------------|---------------------4-----|
A|5--------------------------|5------5------7------------|
E|--------------5------------|---------------------------|



G|------ ------ ------ ------|------ ------ ------ ------|
D|5--------------------------|5--------------------4-----|
A|--------------5------------|-------5------7------------|
E|---------------------------|---------------------------|


Verse:
G|------ ------ ------ ------|------ ------ ------ ------|
D|5--------------------------|5--------------------------|
A|--------------5------------|--------------5------2-----|
E|---------------------------|---------------------------|
  They'             re gonna  put    me     in     the mo-


G|------ ------ ------ ------|------ ------ ------ ------|
D|---------------------------|---------------------------|
A|3--------------------------|3--------------------------|
E|--------------3------------|--------------3------------|
      vie,


G|------ ------ ------ ------|------ ------ ------ ------|
D|---------------------------|---------------------------|
A|--------------5------------|--------------2------3-----|
E|3--------------------------|3--------------------------|
  They're gonna make   a   big       star   out    of  me


G|------ ------ ------ ------|------ ------ ------ ------|
D|---------------------------|---------------------4-----|
A|5--------------------------|5------5------7------------|
E|--------------5------------|---------------------------|
                                                       We'll


G|------ ------ ------ ------|------ ------ ------ ------|
D|5--------------------------|5--------------------------|
A|--------------5------------|--------------5------2-----|
E|---------------------------|---------------------------|
  make   a   film   a- bout a man    that's sad    and lone-


G|------ ------ ------ ------|------ ------ ------ ------|
D|---------------------------|---------------------------|
A|3--------------------------|3--------------------3-----|
E|--------------3------------|--------------3------------|
      ly,                                              And


G|------ ------ ------ ------|------ ------ ------ ------|
D|---------------------------|---------------------4-----|
A|5--------------------------|5------------/7------------|
E|--------------5------------|---------------------------|
  all I've   to do  is            act    na  -  tural-
         got

G|------ ------ ------ ------|------ ------ ------ ------|
D|5------5------5------5-----|5--------------------------|
A|---------------------------|---------------------------|
E|---------------------------|---------------------------|
  ly                                            Well, I

Bridge:
G|------ ------ ------ ------|------ ------ ------ ------|
D|---------------------------|---------------------4-----|
A|5--------------------------|5------5------7------------|
E|--------------5------------|---------------------------|
  bet    you           I'm    gon -  na     be     a   big


G|------ ------ ------ ------|------ ------ ------ ------|
D|5--------------------------|5------5------4------------|
A|--------------5------------|---------------------7-----|
E|---------------------------|---------------------------|
         star,                                  Might


G|------ ------ ------ ------|------ ------ ------ ------|
D|---------------------------|---------------------4-----|
A|5--------------------------|5-------------7------------|
E|--------------5------------|---------------------------|
  win    an  Os  -  car,      you    can        never  tell


G|------ ------ ------ ------|------ ------ ------ ------|
D|5--------------------------|5------5------4------------|
A|--------------5------------|---------------------7-----|
E|---------------------------|---------------------------|
                                                       The


G|------ ------ ------ ------|------ ------ ------ ------|
D|---------------------------|---------------------4-----|
A|5--------------------------|5----------5h-7------------|
E|--------------5------------|---------------------------|
  mo  -  vie's  gon -  na  make      me     a   big    star,


G|------ ------ ------ ------|------ ------ ------ ------|
D|5--------------------------|5--------------------5-----|
A|--------------5------------|--------------5------------|
E|---------------------------|---------------------------|
                                                       Cause


G|------ ------ ------ ------|------ ------ ------ ------|
D|7----------7--7------------|7----------7--7------------|
A|---------------------------|---------------------------|
E|---------------------------|---------------------------|
  I      can    play   the part                 so     well


G|------ ------ ------ ------|------ ------ ------ ------|
D|---------------------------|---------------------4-----|
A|5----------5--5------------|5------5------7------------|
E|---------------------------|---------------------------|
                                                Well,  I

Verse:
G|------ ------ ------ ------|------ ------ ------ ------|
D|5--------------------------|5--------------------------|
A|--------------5------------|--------------5---\--2-----|
E|---------------------------|---------------------------|
  hope   you'll come   and    see    me     in     the mo-


G|------ ------ ------ ------|------ ------ ------ ------|
D|---------------------------|---------------------------|
A|3--------------------------|3--------------------3-----|
E|--------------3------------|--------------3------------|
      vie,


G|------ ------ ------ ------|------ ------ ------ ------|
D|---------------------------|---------------------------|
A|--------------5------------|--------------2------3-----|
E|3--------------------------|3--------------------------|
  Then I'll  know      that you      will   plain- ly


G|------ ------ ------ ------|------ ------ ------ ------|
D|---------------------------|---------------------------|
A|5--------------------------|5------3------2------------|
E|--------------5------5-----|---------------------5-----|
  see                                                  The


G|------ ------ ------ ------|------ ------ ------ ------|
D|---------------------------|---------------------------|
A|--------------5------------|--------------5------2-----|
E|3--------------------------|3--------------------------|
  biggest    fool          that ever        hit    the big


G|------ ------ ------ ------|------ ------ ------ ------|
D|---------------------------|---------------------------|
A|3----------3---------------|3-------------2------3-----|
E|--------------3------------|---------------------------|
      time,                                            And


G|------ ------ ------ ------|------ ------ ------ ------|
D|---------------------------|---------------------4-----|
A|5--------------------------|5-------------7------------|
E|--------------5------------|---------------------------|
  all I've   to do  is            act    na  -  tural-
         got

G|------ ------ ------ ------|------ ------ ------ ------|
D|5------2-------------------|---------------------------|
A|--------------5------2-----|---------------------------|
E|---------------------------|3--------------------------|
  ly

Break (solo):
G|------ ------ ------ ------|------ ------ ------ ------|
D|---------------------------|---------------------------|
A|5--------------------------|5--------------------5-----|
E|--------------5------------|--------------5------------|



G|------ ------ ------ ------|------ ------ ------ ------|
D|5--------------------------|5------5------4------------|
A|--------------5------------|---------------------7-----|
E|---------------------------|---------------------------|



G|------ 7----- ----5- ------|------ ------ ------ ------|
D|-----------5h-7------------|---------------------------|
A|5--------------------------|5------3------2---2--------|
E|---------------------------|---------------------5-----|



G|------ ------ ------ ------|------ ------ ------ ------|
D|---------------------------|---------------------------|
A|--------------5------------|--------------2------3-----|
E|3--------------------------|3--------------------------|
                                                       We'll

Verse:
G|------ ------ ------ ------|------ ------ ------ ------|
D|5--------------------------|5------5-------------------|
A|--------------5------------|--------------5------2-----|
E|---------------------------|---------------------------|
  make   the scene  a- bout a man    that's sad    and lone-


G|------ ------ ------ ------|------ ------ ------ ------|
D|---------------------------|---------------------------|
A|3--------------------------|3--------------------3-----|
E|--------------3------------|--------------3------------|
      ly,                                              And


G|------ ------ ------ ------|------ ------ ------ ------|
D|5--------------------------|5------5------5-\-2--------|
A|--------------5------------|---------------------5-----|
E|---------------------------|---------------------------|
  begging    down      up- on        his    ben    ded knee


G|------ ------ ------ ------|------ ------ ------ ------|
D|---------------------------|---------------------4-----|
A|5--------------------------|5-------------5------------|
E|--------------5------------|---------------------------|
                                                       I'll


G|------ ------ ------ ------|------ ------ ------ ------|
D|5--------------------------|5------5-------------------|
A|--------------5------------|--------------5------2-----|
E|---------------------------|---------------------------|
  play   the part,        and I      don't  need   re- hear-


G|------ ------ ------ ------|------ ------ ------ ------|
D|---------------------------|---------------------------|
A|3--------------------------|3-------------2------3-----|
E|--------------3------------|---------------------------|
      sing,                                            All


G|------ ------ ------ ------|------ ------ ------ ------|
D|---------------------------|---------------------4-----|
A|5--------------------------|5------5------7------------|
E|--------------5------------|---------------------------|
      I have to do  is            act    na  -  tural-


G|------ ------ ------ ------|------ ------ ------ ------|
D|5------2-------------------|---------------------------|
A|--------------5---2--------|---------------------------|
E|---------------------------|3--------------------------|
  ly                                            Well, I

Bridge:
G|------ ------ ------ ------|------ ------ ------ ------|
D|---------------------------|---------------------4-----|
A|5------------------------4/|5-------------7------------|
E|--------------5------------|---------------------------|
  bet    you           I'm    gon -  na     be     a   big


G|------ ------ ------ ------|------ ------ ------ ------|
D|5--------------------------|5------5------5---\--2-----|
A|--------------5------------|---------------------------|
E|---------------------------|---------------------------|
         star,                                  Might


G|------ ------ ------ ------|------ ------ ------ ------|
D|---------------------------|---------------------4-----|
A|5--------------------------|5------5------7------------|
E|--------------5------------|---------------------------|
  win    an  Os  -  car,      you    can        never  tell


G|------ ------ ------ ------|------ ------ ------ ------|
D|5--------------------------|5------5------4------------|
A|--------------5------------|---------------------7-----|
E|---------------------------|---------------------------|
                                                       The


G|------ ------ ------ ------|------ ------ ------ ------|
D|---------------------------|---------------------4-----|
A|5--------------------------|5------5------7------------|
E|--------------5------------|---------------------------|
  mo  -  vie's  gon -  na  make      me     a   big    star,


G|------ ------ ------ ------|------ ------ ------ ------|
D|5------5-------------------|5------5-------------5-----|
A|--------------5------5-----|--------------5------------|
E|---------------------------|---------------------------|
                                                       Cause


G|------ ------ ------ ------|------ ------ ------ ------|
D|7----------7--7------------|7----------7--7------------|
A|---------------------------|---------------------------|
E|---------------------------|---------------------------|
  I      can    play   the part                 so     well


G|------ ------ ------ ------|------ ------ ------ ------|
D|---------------------------|---------------------4-----|
A|5----------5--5------------|5------5------7------------|
E|---------------------------|---------------------------|
                                                Well,  I

Verse:
G|------ ------ ------ ------|------ ------ ------ ------|
D|5--------------------------|5--------------------------|
A|--------------5------------|--------------5------2-----|
E|---------------------------|---------------------------|
  hope   you'll come   and    see    me     in     the mo-


G|------ ------ ------ ------|------ ------ ------ ------|
D|---------------------------|---------------------------|
A|3--------------------------|3--------------------3-----|
E|--------------3------------|--------------3------------|
      vie,


G|------ ------ ------ ------|------ ------ ------ ------|
D|---------------------------|---------------------------|
A|--------------5------------|-------2------3------4-----|
E|3--------------------------|3--------------------------|
  Then I'll  know      that you      will   plain- ly


G|------ ------ ------ ------|------ ------ ------ ------|
D|---------------------------|---------------------4-----|
A|5--------------------------|5------5------7------------|
E|--------------5------------|---------------------------|
  see                                                  The


G|------ ------ ------ ------|------ ------ ------ ------|
D|5--------------------------|5------5-------------------|
A|--------------5------------|--------------5------2-----|
E|---------------------------|---------------------------|
  biggest    fool          that ever        hit    the big


G|------ ------ ------ ------|------ ------ ------ ------|
D|---------------------------|---------------------------|
A|3--------------------------|3--------------------3-----|
E|--------------3------------|--------------3------------|
      time,                                            And


G|------ ------ ------ ------|------ ------ ------ ------|
D|---------------------------|---------------------------|
A|5--------------------------|5------5-------------5-----|
E|--------------5------------|--------------5------------|
  all I've   to do  is            act    na  -  tural-
         got

G|------ ------ ------ ------|------ ------ ------ ------|
D|5--------------------------|---------------------------|
A|--------------5------2-----|---------------------------|
E|---------------------------|3--------------------------|
  ly

Outro:
G|------ ------ ------ ------|------ ------ ------ ------|
D|---------------------------|---------------------------|
A|5------5------5------5-----|5------5------5------5-----|
E|---------------------------|---------------------------|



G|------ ------ ------ ------|------ ------ ------ ------|
D|5------2-------------------|---------------------------|
A|--------------5------2-----|---------------------------|
E|---------------------------|3--------------------------|

Please e-mail me for any corrections.
            
Submit corrections

comments powered by Disqus
↑ Back to top | Beatles Bass for Act Naturally. Lyrics for acoustic guitar and electric guitar. 1 Tablatures and chords are parodies/interpretations of the original songs. You may use it for private study, scholarship, research or language learning purposes only