» » »

Beatles, Across The Universe Bass tabs (ver.1)

Artists:  A B C D E F G H I J K L M N O P Q R S T U V W X Y Z # 

Across The Universe Bass tabs (ver.1)

Beatles Tabs
Rating:
0/5 (0 votes)
Across The Universe lessons Tabs too difficult? Try these video lessons and learn fast
                ACROSS THE UNIVERSE


Thursday, January 9, 1969 (Twickenham Studio sessions)



  INTRO



G|---------------------------------|---------------------------------|
D|---------------------------------|---------------------------------|
A|---------------------------------|---------------------------------|
E|---------------------------------|---------------------------------|





G|---------------------------------|---------------------------------|
D|---------------------------------|---------------------------------|
A|---------------------------------|---------------------------------|
E|---------------------------------|---------------------------------|





  VERSE



G|---------------------------------|---------------------------------|
D|---------------------------------|-4---------------------------4---|
A|-5---------------2---------------|-------------4-----------4-------|
E|---------------------------------|---------------------------------|
   Words   flowing     like          rain        a   paper cup   they
       are       out       endless       into




G|---------------------------------|-2-----------2---2-------2-------|
D|-2-----------2---2-\-----2---4---|---------------------------------|
A|---------------------------------|---------------------------------|
E|---------------------------------|---------------------------------|
   slither     they    they      way     across  the universe
         while     pass    slip
                             a




G|-2-------|
D|---------|
A|---------|
E|---------|





G|-2-------------------------------|---------------------------------|
D|---------------------------------|-4---------------4---------------|
A|---------5-------2---------------|---------------------------------|
E|---------------------------------|---------------------------------|
   Pools   sorrow  waves   joy are   drifting    my  opened        pos..
       of              of                    through




G|-----------------|---------------------------------|
D|-2---------------|-5---------------5---------------|
A|-----------------|---------------------------------|
E|-----------------|---------------------------------|
 ..sessing and caressing     me




  CHORUS



G|---------------------------------|---------------------------------|
D|---------------------------------|---------------------------------|
A|-5---5---5---5---5---5---5---5---|-5---5---5---5---5---5---5---5---|
E|---------------------------------|---------------------------------|
   Jai     Guru                Deva




G|---------------------------------|
D|---------------------------------|
A|---------------------------------|
E|-5---5---5---5---5---5---5---5---|
   Om




G|---------------------------------|---------------------------------|
D|---------------------------------|---------------------------------|
A|---------------------------------|---------------------------------|
E|-5---5---5---5---5---5---5---5---|-5---5---5---5---5---5---5---5---|
   Nothing's       change  my  world
           gonna




G|---------------------------------|---------------------------------|
D|---------------------------------|---------------------------------|
A|---------------------------------|-5---5---5---5---5---5---5---5---|
E|-3---3---3---3---3---3---3---3---|---------------------------------|
   Nothing's       change  my  world
           gonna




G|---------------------------------|---------------------------------|
D|---------------------------------|---------------------------------|
A|---------------------------------|---------------------------------|
E|-5---5---5---5---5---5---5---5---|-5---5---5---5---5---5---5---5---|
   Nothing's       change  my  world
           gonna




G|---------------------------------|---------------------------------|
D|---------------------------------|---------------------------------|
A|---------------------------------|-5-------------------------------|
E|-3---3---3---3---3---3---3---3---|---------------------------------|
   Nothing's       change  my  world
           gonna




  VERSE



G|---------------------------------|---------------------------------|
D|---------------------------------|-4---------------4---------------|
A|-5---------------2---------------|---------------------------------|
E|---------------------------------|---------------------------------|
   Images    of    broken  light     dance       me  like  million eyes
                               which     before          a




G|---------------------------------|-2-------------------------------|
D|(2)--------------2---------------|---------------------------------|
A|---------------------------------|-----------------0-------2---4---|
E|---------------------------------|---------------------------------|
       they    me  on    on    across    the universe
           call      and




G|---------------------------------|---------------------------------|
D|---------------------------------|-4---4-----------4---------------|
A|-5---------------2---------------|-----------------------------4---|
E|---------------------------------|---------------------------------|
   Thoughts        like  restless    wind        a   letter      they
       me              a                 inside            box
         under




G|-----------------------------4---|-2-------------------------------|
D|-2---------------2---------------|---------------------------------|
A|-------------2-------------------|-----------------0-------2---4---|
E|---------------------------------|---------------------------------|
   tumble  blindly as  they    their way across  the universe
                           make




G|---------|
D|---------|
A|-5-------|
E|---------|





  CHORUS



G|---------------------------------|---------------------------------|
D|---------------------------------|---------------------------------|
A|-5-------------------------------|-----5---5---5---5---5---5---5---|
E|---------------------------------|---------------------------------|
   Jai     Guru                Deva




G|---------------------------------|
D|---------------------------------|
A|---------------------------------|
E|-5---5---5---5---5---5---5---5---|
   Om




G|---------------------------------|---------------------------------|
D|---------------------------------|---------------------------------|
A|---------------------------------|---------------------------------|
E|-5---5---5---5---5---5---5---5---|-5---5---5---5---5---5---5---5---|
   Nothing's       change  my  world
           gonna




G|---------------------------------|---------------------------------|
D|---------------------------------|---------------------------------|
A|---------------------------------|-5---5---5---5---5---5---5---5---|
E|-3---3---3---3---3---3---3---3---|---------------------------------|
   Nothing's       change  my  world
           gonna




G|---------------------------------|---------------------------------|
D|---------------------------------|---------------------------------|
A|---------------------------------|---------------------------------|
E|-5---5---5---5---5---5---5---5---|-5---5---5---5---5---5---5---5---|
   Nothing's       change  my  world
           gonna




G|---------------------------------|---------------------------------|
D|---------------------------------|---------------------------------|
A|---------------------------------|-5-------------------------------|
E|-3---3---3---3---3---3---3---3---|---------------------------------|
   Nothing's       change  my  world
           gonna




  VERSE



G|---------------------------------|---------------------------------|
D|---------------------------------|-4---------------4-------4-------|
A|-5---5-------4---2---------------|---------4-----------------------|
E|---------------------------------|---------------------------------|
   Sounds          shades  life      ringing through opened      inciting
       of              of      are               my        ears
         laughter




G|---------4---4---|---------------------------------|
D|-2---------------|-5-------5-------5---5-----------|
A|-----------------|---------------------------------|
E|-----------------|---------------------------------|
           and inviting      me




G|---------------------------------|---------------------------------|
D|---------------------------------|-4---------------4---------------|
A|-5---------------2-----------2---|-------------4-------------------|
E|---------------------------------|---------------------------------|
   Limitless   undying   love  which shines      me  like  million
                                         Around          a




G|-----------------------------4---|-2-------------------------------|
D|-2---------------2---------------|---------------------------------|
A|-------------2-------------------|-----------------0---0---2---4---|
E|---------------------------------|---------------------------------|
   suns,   calls   on    on    across    the universe
       it      me    and




  CHORUS



G|---------------------------------|---------------------------------|
D|---------------------------------|---------------------------------|
A|-5-------------------------------|---------------------------------|
E|---------------------------------|---------------------------------|
   Jai     Guru                Deva




G|---------------------------------|
D|---------------------------------|
A|---------------------------------|
E|-5---5---5---5---5---5---5---5---|
   Om




G|---------------------------------|---------------------------------|
D|---------------------------------|---------------------------------|
A|---------------------------------|---------------------------------|
E|-5---5---5---5---5---5---5---5---|-5---5---5---5---5---5---5---5---|
   Nothing's       change  my  world
           gonna




G|---------------------------------|---------------------------------|
D|---------------------------------|---------------------------------|
A|---------------------------------|-5---5---5---5---5---5---5---5---|
E|-3---3---3---3---3---3---3---3---|---------------------------------|
   Nothing's       change  my  world
           gonna




G|---------------------------------|---------------------------------|
D|---------------------------------|---------------------------------|
A|---------------------------------|---------------------------------|
E|-5---5---5---5---5---5---5---5---|-5---5---5---5---5---5---5---5---|
   Nothing's       change  my  world
           gonna




G|---------------------------------|---------------------------------|
D|---------------------------------|---------------------------------|
A|---------------------------------|-5-------------------------------|
E|-3---3---3---3---3---3---3---3---|---------------------------------|
   Nothing's       change  my  world
           gonna
            

comments powered by Disqus
↑ Back to top | Beatles Bass for Across The Universe. Lyrics for acoustic guitar and electric guitar. Tablatures and chords are parodies/interpretations of the original songs. You may use it for private study, scholarship, research or language learning purposes only