» » »

So What'cha Want Tabs (ver.1)

Artists:  A B C D E F G H I J K L M N O P Q R S T U V W X Y Z # 

So What'cha Want Tabs (ver.1)

Beastie Boys
Rating:
0/5 (0 votes)

Tabs too difficult? Try these video lessons and learn fast.
                Tuning: STANDARD eADGBE


h= HAMMER-ON
b= BEND

Verse (LOL so easy!)


E|-9h11-----------------------------------------------------|
B|----------------------------------------------------------|
G|----------------------------------------------------------|
D|----------------------------------------------------------|
A|------2--2-2--2-2--2-2--2-2--2-2--2-2--2-2--2-2--2-2--2-2-|
e|------0--0-0--0-0--0-0--0-0--0-0--0-0--0-0--0-0--0-0--0-0-|

*Just repeat this chord as much as needed, in sync with the song of course.

And then the mini solo thingy: (You dont have to play the 9 and hammer on to 11 [but you 
to bend the 11 up right below the b string) if you find it too difficult, but that is 
its played in the song but its barely audible).

E|-9h11b---9--9-9h11b---9--9-9h11b-| *Repeat as necessary
B|------11--11--------11-11--------|
G|---------------------------------|
D|---------------------------------|
A|---------------------------------|
e|---------------------------------|

Oh and the bass for this song is simply just (from the beginning and played throughout 
whole song):

E|----------------------------------------------------------|
B|----------------------------------------------------------|
G|----------------------------------------------------------|
D|----------------------------------------------------------|
A|----------------------------------------------------------|
e|-0--0-0--0-0--0-0--0-0--0-0--0-0--0-0--0-0--0-0--0-0--0-0-|

 Sounds better on a bass guitar, but just crank the bass all the way up on ur electric 
amp and a little distortion and it should help.
            
Tabs too difficult? Try these video lessons and learn fast.




comments powered by Disqus
↑ Back to top | Tablatures and chords are parodies/interpretations of the original songs. You may use it for private study, scholarship, research or language learning purposes only