» » »

Beastie Boys, Fight For Your Right To Party Tabs (ver.1)

Artists:  A B C D E F G H I J K L M N O P Q R S T U V W X Y Z # 

Fight For Your Right To Party Tabs (ver.1)

Beastie Boys Tabs
 Rating:
4/5 (4 votes)
Fight For Your Right To Party lessons Tabs too difficult? Try these video lessons and learn fast
                Transcriptor: Reid C.
Moderately= 134
Tune down half a step= Eb-Ab-Db-Gb-Bb-Eb
Just so you know-this is the RIGHT tab for this song

Intro=
       Kick It!!!
Eb----|--------------|
Bb----|--------------|
Gb----|--------------|  x1
Db----|-7----------7-|
Ab----|-7----------7-|
Eb--5-|-5--------0-5-|

Eb-----------------|------------------|
Bb----5---7---7----|-----5---7---7----|
Gb----5---7---7----|-----5---7---7----| x3
Db-7--5---7---7--7-|--7--5---7---7--7-|
Ab-7--3---5---5--7-|--7--3---5---5--7-|
Eb-5--3---5------5-|--5--3---5------5-|

Eb------------------|----------------|
Bb--------5--7--7---|-----5----------|
Gb--------5--7--7---|-----5----------| x1
Db--(7)-7-5--7--7-7-|--7--5--------7-|
Ab--(7)-5-3--5--5-7-|--7--3--------7-|
Eb--(5)-5-3--5----5-|--5--3--0-3-0-5-|


Verse=
                                                  -----
Eb---------------|-----------------|                   |            
Bb---------------|-----------------|                   |
Gb---------------|-----------------|                   |
Db---------------|---------------7-|                   |
Ab---------------|---------------7-|                   |
Eb-5-5-5-5-5-5-5-|-5-5-5-5-5-5-5-5-|(clicks/muted)     |
                                                       |
                                                       |  x4
Eb-----------|-----------|                             |
Bb-----7-----|-----7-----|                             |
Gb---5-7-x---|---5-7-x---|                             |
Db-7-5-7-x-7-|-7-5-7-x-7-|                             |
Ab-7-3-5-x-7-|-7-3-5-x-7-|                             |
Eb-5-----x-5-|-5-----x-5-|                             |
                                                 -----


Chorus=
    
For your right- To partay--
Eb-------------|------------|
Bb--7---7------|---7-7------|
Gb--7---7------|---7-7------|
Db--7---7------|---7-7----7-|
Ab--5---5------|---5-5----7-|
Eb--5---5------|--------0-5-|

Interlude=

four measures of rest then:
          
         ^(bend)
Eb-------|------|------------------|
Bb------20------|--------5--7--7---|
Gb--------------|--------5--7--7---|
Db--------------|--(7)-7-5--7--7---|
Ab--------------|--(7)-7-3--5--5-2-|
Eb--------------|--(5)-5-3--5----0-|

         (bend)1/2
Eb----------------| 
Bb----------------|  
Gb----------------| 
Db----------------| 
Ab--2-2-2-2-2-2---| 
Eb--0-0-0-0-0-0-3-| 

          (bend)1/2     (bend)1/2
Eb----------------|---------------|     
Bb----------------|---------------|
Gb----------------|---------------|
Db----------------|---------------|
Ab---2-2-2-2-2----|---2-2-2-2-2---|
Eb-0-0-0-0-0-0--3-|-0-0-0-0-0-0-3-|

                   
Eb----------------|
Bb----------------|
Gb----------------|
Db--------------7-|
Ab--2-2-2-2-2-2-7-|
Eb--0-0-0-0-0-0-5-|


Guitar Solo=
 /\/\/\/\/\/\/\/\/\/\(w/bar)         B       B(up) B(down)
Eb-------------------------|---------------17---------|
Bb-(20)-(20)-20---(20)--20-|-17-19-19-----------------|
Gb-------------------------|-17-19-19-19------19-(19)-|
Db-------------------------|--------------------------|
Ab-------------------------|--------------------------|
Eb-------------------------|--------------------------|
                                     B(up)   B(up)  B(down)(let ring) /\/\/\/                     
Eb---------------------------|--------------------------|------------------|
Bb-(19)----------------------|--------------------------|------------------|
Gb------------------------17-|-19-17-19------19----(19)-|------------------|
Db---------------17-18-19----|--------------------------|------------------|
Ab------17h18h19-------------|--------------------------|------------------|
EB---------------------------|--------------------------|------------------|

                                  /\/\/\/\/\
                               B(up)   B(down)
Eb-20p19p17------------|--------------------|
Bb----------20-17---20-|----17-20------(20)-|
Gb---------------------|--------------------|
Db---------------------|--------------------|
Ab---------------------|--------------------|
Eb---------------------|--------------------|


Order:

Intro
Verse 1
Chorus
Verse 2
Chorus
Interlude
Guitar Solo
Verse 3
Chorus x2
Interlude


LYRICS:

Kick it!

Verse 1

You wake up late for school man you don't wanna go
You ask you mom, "Please?" but she still says, "No!"
You missed two classes and no homework
But your teacher preaches class like you're some kind of jerk

Chorus

You gotta fight for your right to party


Verse 2

pops caught you smoking,man he says, "No way!"
That hypocrite smokes two packs a day
Man, livin at home is such a drag
Now your mom threw away your best porno mag... Bust it!


(Chorus)


Verse 3


Don't step out of this house if that's the clothes you're gonna wear
I'll kick you out of my home if you don't cut that hair
Your mom busted in and said, "What's that noise?"
Aw, mom you're just jealous it's the Beastie Boys!


Key:
Whammy Bar: /\/\/\/\/
Pull off: p
Hammeron: h
Bend: B (bend up or down)


Happy Playing!!!
            
Submit corrections

comments powered by Disqus
↑ Back to top | Beastie Boys Tabs for Fight For Your Right To Party. Lyrics for acoustic guitar and electric guitar. Tablatures and chords are parodies/interpretations of the original songs. You may use it for private study, scholarship, research or language learning purposes only