» » »

Beginning Tabs (ver.1)

Artists:  A B C D E F G H I J K L M N O P Q R S T U V W X Y Z # 

Beginning Tabs (ver.1)

Bbmak
Rating:
0/5 (0 votes)

Hard to play? Try these video lessons and learn fast.
                
½ Step Down

Chords:
Em- 022033
D- xx0232
Dsus- xx0233
G-320033
Gadd9-2x0033
A-x02220

Intro/Verse
Em             D             Dsus  D
“You don’t know what it’s like,”
 Em                G           D
“And as the seasons fall apart, I feel a little older!”

Prechorus

G Gadd9 Em       G                     D        A
“I know you’re on to leave me where I’m standing.”

Chorus
       Em              G             D           A
"I dont want to let you go, but in my heart now i know."
                 Em       G       D
That its only the beginning of the end."

Bridge
Em      D      A        Em
“When I gave my heart to you,”

Solo 1-chorus is played over the solos
E-----------------------------------------------------------|
B--10--8--7----10--8--7---10--8--7--------------------------|
G------------9----------9-----------9--7--6--4--2-----------|
D-----------------------------------------------------------|
A-----------------------------------------------------------|
e-----------------------------------------------------------|

------------------------------------------------------------|E
---10--8--7----10--8--7----10--8--7-------------------------|B
----------9-------------9------------9----7---6b------------|G
------------------------------------------------------------|D
------------------------------------------------------------|A
------------------------------------------------------------|E

Chorus

Solo 2
E--------------------------------------------------------------------------|
B--------------------------------------------------------------------------|
G--2/14-12-11--14-12-11--14-12-11--12-11-6--14-12-11-14-12-11-14-12-11r----|
D--------------------------------------------------------------------------|
A--------------------------------------------------------------------------|
e--------------------------------------------------------------------------|

End on D
            
Hard to play? Try these video lessons and learn fast. | Correct




comments powered by Disqus
↑ Back to top | Tablatures and chords are parodies/interpretations of the original songs. You may use it for private study, scholarship, research or language learning purposes only