» » »

Key To The Highway Tabs (ver.2)

Artists:  A B C D E F G H I J K L M N O P Q R S T U V W X Y Z # 

Key To The Highway Tabs (ver.2)

Bb King
Rating:
0/5 (0 votes)

Tabs too difficult? Try these video lessons and learn fast.
                

INTRO

E------------------------------------------11^(13)--11--11--9v--------------|
B---------9------11^(13)----11^(13)--11-------------------------------------|
G----/10-----10-------------------------------------------------------------|
D---------------------------------------------------------------------------|
A---------------------------------------------------------------------------|
E---------------------------------------------------------------------------|

E------------------------------------------11^(13)--------------------------|
B----11^(13)--11-9-----------9--11^(13)-------------11^(13)^(11)p9----------|
G------------------10----10-----------------------------------------10------|
D---------------------------------------------------------------------------|
A---------------------------------------------------------------------------|
E---------------------------------------------------------------------------|

E-------------9-9-9^(10)^(9)------------------------------------------------|
B----11^(13)------------------9-11^(13)-11-11-9vv----11^(13)----------------|
G---------------------------------------------------------------------------|
D---------------------------------------------------------------------------|
A---------------------------------------------------------------------------|
E---------------------------------------------------------------------------|


SOLO 1

E----------------------------------11^(13)--11-9v---------------------------|
B----11^(13)^(11)^(13)----11hbrv---------------------11^(13)--11--9--11-----|
G----------------------------*-------------------------------------------10-|
D---------------------------------------------------------------------------|
A---------------------------------------------------------------------------|
E---------------------------------------------------------------------------|

E-------------9—9^(11)^(9)--------------------------------------------------|
B----11^(13)----------------9--11^(13)--------------------------------------|
G---------------------------------------------------------------------------|
D---------------------------------------------------------------------------|
A---------------------------------------------------------------------------|
E---------------------------------------------------------------------------|

E-------------9—9^(11)^(9)--------------------------------------------------|
B----11^(13)----------------9--11^(13)^(11)p9------9v-----9—11^(13)---------|
G----------------------------------------------10---------------------------|
D---------------------------------------------------------------------------|
A---------------------------------------------------------------------------|
E---------------------------------------------------------------------------|



SOLO 2


E------------------------------------------11^(13)--11--9-------------------|
B----11^(13)^(11)^(13)----11^(12)^(11)v-------------------------------------|
G---------------------------------------------------------------------------|
D---------------------------------------------------------------------------|
A---------------------------------------------------------------------------|
E---------------------------------------------------------------------------|

E-----------------------------------9--9^(11)-------------------------------|
B----11^(13)—11--9v-h10----11^(13)------------9---11^(13)-------------------|
G---------------------------------------------------------------------------|
D---------------------------------------------------------------------------|
A---------------------------------------------------------------------------|
E---------------------------------------------------------------------------|

E-------------9--9^(11)^(9)-------------------------------------------------|
B----11^(13)-----------------9--11^(13)--11--9vv----9v--9--11^(13)----------|
G---------------------------------------------------------------------------|
D---------------------------------------------------------------------------|
A---------------------------------------------------------------------------|
E---------------------------------------------------------------------------|



E-------------4-------------------------------------------------------------|
B----4----------------------------------------------------------------------|
G-------6--5----------------------------------------------------------------|
D---------------------------------------------------------------------------|
A---------------------------------------------------------------------------|
E---------------------------------------------------------------------------|


KEY

X^(Y) – Bend from note X to note Y                     
YpX   - Pull off
XhY   - Hammer on
Xv    - Vibrato
/X    - Slide into note X from below (lower note)

*Xhbrv – Half bend, release and add vibrato*
            
Tabs too difficult? Try these video lessons and learn fast.


comments powered by Disqus
↑ Back to top | Tablatures and chords are parodies/interpretations of the original songs. You may use it for private study, scholarship, research or language learning purposes only