>
 >
The Thrill Is Gone 1

The Thrill Is Gone 1 Guitar Tabs

B. B. King - The Thrill Is Gone 1 chords, tabs, tablatures, lyrics

Guitar lessons | Add/correct | Request | Top 50 tabs Artists:  A B C D E F G H I J K L M N O P Q R S T U V W X Y Z 0-9

The Thrill Is Gone 1 Guitar Tabs – B. B. King

CD, Sheet music, Poster

Do you like The Thrill Is Gone 1? Share with your friends now
Bass TabsChordsTabsTabs v2
THE THRILL IS GONE
(From the 1971 Album LIVE IN COOK COUNTY JAIL)

Gtr I (E A D G B E) - 'B.B. King'
Gtr II (E A D G B E) - 'Piano and Horns arr. for guitar'

Intro
  Q=96
 4/4
  Gtr I
                                   ~~~~        ~~                        ~~
  H.      Q     E E Q  Q   E E     E  E Q  Q   E  E    E     E    Q  Q   E  E
|-8----------|------------10---|-----------------10-|-12b14-12b14----------10-|
|-8----------|-12--------------|-(12)---------12----|-------------------12----|
|-9----------|-----------------|--------------------|-------------------------|
|------------|-----------------|--------------------|-------------------------|
|------------|-----------------|--------------------|-------------------------|
|------------|-----------------|--------------------|-------------------------|


                  ~~                                  ~~
   E  E     E  e  E  E  E  e    E  e E   E  S  S   E  E  e
|-12-12b14-10-12----10----10-|----------10-12p10--------10-|
|----------------12----10-12-|-12-12--------------12-12-12-|
|----------------------------|-13--------------------------|
|----------------------------|-----------------------------|
|----------------------------|-----------------------------|
|----------------------------|-----------------------------|
      ~~          ~~
  Q   E  E  S  S  E  a  E  E
|-------10-12p10----10h11-12b14==|
|----12----------12--------------|
|--------------------------------|
|--------------------------------|
|--------------------------------|
|--------------------------------|

    ~~~~                     ~~~~             ~                      ~~
   +E  E Q  Q   E  +E      e E E  S S S S S S E E   Q   S  E.  S  S  E E E
|-(12)---------19-(19)\-|-10-7-7----------------x-|----10h12--10-------x---|
|-----------------------|--------10-7-----7-----x-|--------------12-12-x---|
|-----------------------|-------------7-9---7-----|------------------------|
|-----------------------|---------------------9---|------------------------|
|-----------------------|-------------------------|------------------------|
|-----------------------|-------------------------|------------------------|


  E  E  E  E  S  S  S S  S  S  S S
|------10-12-12p10------12p10------|
|---12-------------12---------12---|
|----------------------------------|
|----------------------------------|
|----------------------------------|
|----------------------------------|


                 ~~~~~~~~                       ~        ~~~~~~
   S     +S   T  S.  +E.  S   S S S S S S S S   Q  S S S S +E  E E E
|-12b14r(12)-10--------------10p7-------------|------------------7---||
|---------------12--(12)-(x)------7-----7-----|------------------9---||
|-----------------------------------7h9---7---|----7-----------------||
|-------------------------------------------9-|-9----9-7-------------||
|---------------------------------------------|----------9-(9)-------||
|---------------------------------------------|----------------------||


 Verse 1
  Gtr II
  Q  E E +Q   S E.   Q  E  E  +Q   S E.
|------------------|--------------------|
|---------------9--|-7----10-(10)----9--|
|-7----7-(7)----9--|-7-----7--(7)----9--|
|-7----7-(7)----9--|-7---------------9--|
|------------------|--------------------|
|------------------|--------------------|


  Q   H    S E.   e E E E +E  E +S  E.
|---------------|-------7-(7)-7-(7)-9---|
|-7--10------9--|-------7-(7)-7-(7)-----|
|-7---7------9--|-7-7-------------------|
|-7---7------9--|-7-7-------------------|
|---------------|-----------------------|
|---------------|-----------------------|


  Q  E S S +E  Q  E   +E   E Q  Q  E  E   Q  E E +Q   S S S  S
|-7--7-7-------7--7-|-(7)-10-7--7--7----|-7--7-7-(7)-------------|
|-8--8---8-(8)-8--8-|-(8)--8-8--8--8-10-|-7--7-7-(7)--7----------|
|-9--9---------9--9-|-(9)--9-9--9--9----|-7--7-7-(7)----7-9p(7)--|
|-------------------|-------------------|------------------------|
|-------------------|-------------------|------------------------|
|-------------------|-------------------|------------------------|


   |-3-|                    |-3--|
   S S S S S Q  +S  S S S E S S  S    E S S +E  E Q  Q     Q.    E  Q   E  E
|-----------------------------------|-------------------|--9-----9-12--12----|
|-----------------------------------|-------------------|-11----11-11--11-10-|
|-11p9p7----------------7---9p7-----|-9-7-------7-7--7--|--9-----9-11--11----|
|--------9-7-9--(9)-7h9---------(9)-|-----9-(9)---9--9--|--------------------|
|-----------------------------------|-------------------|--------------------|
|-----------------------------------|-------------------|--------------------|





                                                          Verse 2 + 3
                        |-3-|
  e E H    S S S  S     S S S S S E. S S S S S +S  S E     W
|-7---7--------------|---------------------------------||--7----|
|-7---7----7---------|---------------------------------||o-7----|
|-7---7------7-9p(7)-|-11p9p7--------------------------||--7----|
|--------------------|--------9-7-9--7---7-9-9-(9)-9---||-------|
|--------------------|-----------------9---------------||o------|
|--------------------|---------------------------------||-------|
                                                        |-Rhy Fig 1

  +H     Q  Q    W          H    Q  Q
|-(7)----9--5--|-7--------|------9--5--|
|-(7)----9--5--|-7--------|------7--7--|
|-(7)----9--6--|-7--------|------6--7--|
|--------------|----------|------------|
|--------------|----------|------------|
|--------------|----------|------------|


  W          +Q   Q   Q  Q    W          +H     H
|-7--------|-(7)------9--7--|-7--------|-(7)---------|
|-8--------|-(8)-----10--8--|-7--------|-(7)---------|
|-9--------|-(9)-----11--9--|-7--------|-(7)---------|
|----------|----------------|----------|-------------|
|----------|----------------|----------|-------------|
|----------|----------------|----------|-------------|


                                  1.               2.
  W          W          W          +H     H         H.      Q
|----------|----------|-7--------|-(7)----------||-(7)-----------||
|-8--------|-7--------|-7--------|-(7)---------o||-(7)-----------||
|-7--------|-6--------|-7--------|-(7)----------||-(7)-----------||
|-9--------|-8--------|----------|--------------||---------------||
|----------|----------|----------|-------------o||---------------||
|----------|----------|----------|--------------||---------------||
                                  end Rhy Fig 1-|

 Verse 4
  Faster Q=108
  Q  E E +E  E S E.   E E E  E  +E   E S E.    E  E E  E  +E   E S E.
|------7-(7)-7------|-7-7-------------------|-------------------------|
|------7-(7)-7---9--|-7-7---10-(10)-10---9--|-10-10---10-(10)-10---9--|
|------7-(7)-7---9--|-7-7----7--(7)--7---9--|--7--7----7--(7)--7---9--|
|------7-(7)-7---9--|-7-7----7--(7)--7---9--|--7--7----7--(7)--7---9--|
|-------------------|-----------------------|-------------------------|
|-------------------|-----------------------|-------------------------|


   E  E E  E  +E   E S E.   E E E E +E  E S E.    E  E E E +E  E E  E
|-------------------------|-7-7---7-(7)-7---7--|-12-12---7-(7)-7-7----|
|-10-10---10-(10)-10---9--|-8-8---8-(8)-8---8--|-12-12---8-(8)-8-8-10-|
|--7--7----7--(7)--7---9--|-9-9---9-(9)-9---9--|-12-12---9-(9)-9-9----|
|--7--7----7--(7)--7---9--|--------------------|----------------------|
|-------------------------|--------------------|----------------------|
|-------------------------|--------------------|----------------------|


  E E E  E  +E   E S E.    E  E E  E  +E   E S  E.    Q   E  E E  Q   E
|-7-7-------------------|--------------------------|--------------------|
|-7-7---10-(10)-10---9--|-10-10---10-(10)-10---11--|-12--12-12---12--12-|
|-7-7----7--(7)--7---9--|--7--7----7--(7)--7-------|-12--12-12---10--10-|
|-7-7----7--(7)--7---9--|--7--7----7--(7)--7---11--|-12--12-12---12--12-|
|-----------------------|--------------------------|--------------------|
|-----------------------|--------------------------|--------------------|


  Gtr I
   W                 W                  H             Q    E  e
|------------------|-----------------|--------------------------||
|------------------|-----------------|-----------------------12-||
|------------------|-----------------|--------------------11----||
|------------------|-----------------|--------------------------||
|------------------|-----------------|--------------------------||
|------------------|-----------------|--------------------------||
|
| Gtr II
|                                       |-3-|
|  Q.    E  Q   Q    Q  H    S S S S    S S S S S E E E E  E  E
|----------12--12--|-7--7------------|--------------------------||
|-11----11-11--11--|-7--7----7-------|--------------------------||
|--9-----9-11--11--|-7--7------7-9p7-|-11p9p7-------------------||
|-11----11---------|-----------------|--------9-7-9-7-----------||
|------------------|-----------------|----------------9-7-------||
|------------------|-----------------|--------------------10--7-||


 Guitar Solo
w/Rhy Fig 1
  Gtr I
   ~~                                    ~~                        ~~
   E E Q  Q   E       E    E  S S Q  Q   E  E    E     E    Q  Q   E  E
|------------10b10.5-12-|------------------10-|-12b14-12b14----------10-|
|-12--------------------|-12-12---------12----|-------------------12----|
|-----------------------|---------------------|-------------------------|
|-----------------------|---------------------|-------------------------|
|-----------------------|---------------------|-------------------------|
|-----------------------|---------------------|-------------------------|


                  ~~
   E  E     E  e  E  e  E  e
|-12-12b14-10-12----10-------|
|----------------12----10-12-|
|----------------------------|
|----------------------------|
|----------------------------|
|----------------------------|


                              ~~~~~~~
   E  e  E  e  E  E     S  S  E    Q   E      E E  Q.
|----------10-12-12b14-12-10----|-----10b10.5-----19----|
|-12-12-12-------------------12-|-12--------------------|
|-13----------------------------|-----------------------|
|-------------------------------|-----------------------|
|-------------------------------|-----------------------|
|-------------------------------|-----------------------|


                         ~                 ~      ~~
   +Q    E  E      +Q    Q     S S S S S S E e E  Q
|-(19)\----10b11==(10)r--7--|----------------7-------|
|---------------------------|-10-7-----7-----7---12--|
|---------------------------|------7-9---7---7-------|
|---------------------------|--------------9-9-------|
|---------------------------|------------------------|
|---------------------------|------------------------|


   S  E.  +Q    +E   E     S  S  e
|-10h12--(12)--(12)-12b14-12-10----|
|-------------------------------12-|
|----------------------------------|
|----------------------------------|
|----------------------------------|
|----------------------------------|


                                       ~~~~~~~
   Q  S E. E  e  E  e    S     +S   S  S  +Q   E  S S S S S S
|---------------10-12-|-12b14r(12)p10------------10-7---------|
|-12--x------12-------|---------------12-(12)---------7-----7-|
|---------------------|---------------------------------7-9---|
|---------------------|---------------------------------------|
|---------------------|---------------------------------------|
|---------------------|---------------------------------------|


    ~~       ~~~~~~    ~~
  S E. S S S S +E. S S E.
|-------------------------||
|-------------------------||
|-7----7------------------||
|---9----9-7---------7-9--||
|------------9-(9)-9------||
|-------------------------||


 Outro
  Gtr I
                                   ~
  E E Q     S S S  S S S S S   S S E Q     S E S S E.
|-x--------------------------|------------------------|
|-x-----------5s7-10-7-----7-|------------------------|
|-x--------------------7-9---|-7-----------------7h9--|
|----------------------------|---9-9---------9--------|
|----------------------------|------------------------|
|----------------------------|------------------------|
|
| Gtr II
| Q   S E S H
|-----7-7-7------------------|
|-----7-7-7------------------|
|-----7-7-7------------------| w/Rhy Fig 2 x3
|----------------------------|
|----------------------------|
|----------------------------|
|-Rhy Fig 2    end Rhy Fig 2-|

  E  E  Q     S  E S     +S   S S S
|----------------7------------------|
|---------------10------------------|
|-7----------------9b11==(9)r-9-7---|
|---(9)---------------------------9-|
|-----------------------------------|
|-----------------------------------|


  ~
  Q  Q     S E S S E.   E    S  S Q    S E  S S  S S  S
|---------------------|------------------7--7----7------|
|---------------------|------------------7-10---10---10-|
|----------------7h9--|-7b8==7r-------------------------|
|-9----------9-9------|---------------------------------|
|---------------------|---------------------------------|
|---------------------|---------------------------------|
|
|                       Q         E. S H
|---------------------|-----------9--7------------------|
|---------------------|-----------9--7------------------|
|---------------------|-----------9--7------------------|
|---------------------|---------------------------------|
|---------------------|---------------------------------|
|---------------------|---------------------------------|
                      |-Rhy Fill 1       end Rhy Fill 1-|

  ~
  E S S Q    S E S     +S   S S S
|-7-7-----------------------------|
|---------------------------------|
|----------------9b11==(9)r-9-7---|
|--------------9----------------9-|
|---------------------------------|
|---------------------------------|
|
| Q     E. S H
|---------------------------------|
|---------------------------------|
|---------------------------------|
|-------9--7----------------------|
|-------7--5----------------------|
|---------------------------------|
|-Rhy Fig 3         end Rhy Fig 3-|

w/Rhy Fig 3 x10
                        H.=H
  ~                ~~                    ~~                    ~~
  Q  E  E   E. S s E.   S E. Q    E. S S E.   S E. Q    E. S s E.
|---------------------|---------------------|---------------------||
|----x----------------|---------------------|---------------------||
|----x----------------|---------------------|---------------------||
|-9--------------7-9--|-9--------------7-9--|-9--------------7-9--||
|--------------9------|--------------9------|--------------9------||
|---------------------|---------------------|---------------------||


  A Tempo Q=96
                   ~~
  S E. Q    E. S s E.   S S E S  E S S S S S S  S  S  S
|---------------------|-----7-x----x---x-----------------|
|---------------------|-----7-x----x---x-----------------|
|---------------------|-------x----x---x-----------------|
|-9--------------7-9--|-9--------------------7-(7)-9p(7)-|
|--------------9------|--------------------9-------------|
|---------------------|----------------------------------|


  ~
  E S S S  E S S S S S S S S S
|-------x----x---x-------------|
|-------x----x---x-------------|
|-------x----x---x-------------|
|-9-9------------------7-7-9-7-|
|--------------------9---------|
|------------------------------|


  ~
  E S S S  E S S S S S S  S  S S
|-------x----x---x---------------|
|-------x----x---x---------------|
|-------x----x---x---------------|
|-9-9------------------7-(7)-9-7-|
|--------------------9-----------|
|--------------------------------|


 Gtr I Q=96(16=s16)
  ~                                ~
  E S S S  E S S S S S S S S  S    E S  S S  E S S S S S S S S S
|-------x----x---x---------------|--------x----x---x---------------|
|-------x----x---x---------------|--------x----x---x---------------|
|-------x----x---x---------------|--------x----x---x---------------|
|-9-9------------------7-7-9p(7)-|-9-9\------------------7-7-9-----|
|--------------------9-----------|---------------------9-----------|
|--------------------------------|---------------------------------|


  ~
  E S S S  E S S S S S S S S S
|-------x----x---x-------------|
|-------x----x---x-------------|
|-------x----x---x-------------|
|-9-9------------------7-7-9---|
|--------------------9---------|
|------------------------------|

w/Rhy Fill 2 x2
  ~                              ~
  E S S S  E S S S S S S S S S   E S S Q    S S S S S S S S
|-------x----x---x-------------|----------------------------|
|-------x----x---x-------------|----------------------------|
|-------x----x---x-------------|--------------------7h9-9---|
|-9-9------------------7-7-9---|-9-9----------9---9---------|
|--------------------9---------|----------------------------|
|------------------------------|----------------------------|


w/Rhy Fig 3 x15
                          ~
  E E Q    S E.   S S e   E E Q    S  S S  S S  S S  S
|-----------------------|------------------------------|
|-----------------------|-----------------12---12---12-|
|-7----------9b11-9-7---|------------11----------------|
|---------------------9-|-9----------------------------|
|-----------------------|------------------------------|
|-----------------------|------------------------------|


   E       S S Q    S  S S  S S  S S  S
|-10b10.5-12---------------10---12---12b14==|
|---------12----------12--------12----------|
|-------------------------------------------|
|-------------------------------------------|
|-------------------------------------------|
|-------------------------------------------|


   +E   E Q    S  S S  S      +S    S  S  S
|-(12)r---------------12b14==(12)r-12-10----|
|----------------12----------------------12-|
|-------------------------------------------|
|-------------------------------------------|
|-------------------------------------------|
|-------------------------------------------|


   ~~
   E  S S Q    S  S S  S        +S    E  S    E      +E   Q    S  S S  S      +Q
|---------------------10b10.5==(10)r-12-12-|-10b11==(10)r-------------12b14==(12)r--|
|-12-12----------12------------------------|---------------------12-----------------|
|------------------------------------------|----------------------------------------|
|------------------------------------------|----------------------------------------|
|------------------------------------------|----------------------------------------|
|------------------------------------------|----------------------------------------|


         ~~~~~~~
   |--3--|
   S  S  S  +Q.      E.  S S  S S S
|-12p10-----------------19---19---x-|
|-------12-(12)-------------------x-|
|-----------------------------------|
|-----------------------------------|
|-----------------------------------|
|-----------------------------------|


                                        ~
   E.  +S   Q    S e S     +S   S S S   E S S Q    S S S S S S S S
|-19--(19)s14\------------------------|----------------------------|
|-------------------------------------|----------------------------|
|--------------------9b11==(9)r-9-7---|--------------------7-9-9---|
|------------------9----------------9-|-9-9----------9-9-9---------|
|-------------------------------------|----------------------------|
|-------------------------------------|----------------------------|


  ~~~~                                     ~
  E    S  S Q    S  S S S     +S   S S S   E S S Q    S S S  S S  S S  S
|-------------------7--------------------|-------------------------------|
|------------------10--------------------|--------------7---10---10---10-|
|-7b8==7r---------------9b11==(9)r-9-7---|-------------------------------|
|--------------------------------------9-|-9-9---------------------------|
|----------------------------------------|-------------------------------|
|----------------------------------------|-------------------------------|


  ~
  E S S Q    S S S  S      +S   S     S  S
|-7-7----------7---10b12==(10)-10-------10r-|
|------------------------------10pb12-------|
|-------------------------------------------|
|-------------------------------------------|
|-------------------------------------------|
|-------------------------------------------|



   ~~~~~
   H          S S S  S      +E    s S
|-10b11---------7---10b12==(10)r-10-7-|
|-------------------------------------|
|-------------------------------------|
|-------------------------------------|
|-------------------------------------|
|-------------------------------------|


 Gtr I Q=96
  ~                ~                    ~~
  Q  Q    E. S S S E   E E E  E   E E S E.
|-7------------------|---------------------||
|--------------------|------------x--------||
|--------------------|-----x------x---x-x--||
|--------------7-9-9-|-x---x------x---7-9--||
|------------9-------|---------------------||
|--------------------|---------------------||


w/Rhy Fill 1 x7
    H=H                         H.=H
                     ~~                      ~~
    E E E  E   E E S E.  6x E E E  E   E E S E.
||-----------------------||---------------------|
||o-x---x------x--------o||-x---x------x--------|
||--x---x------x---x-x---||-x---x------x---x-x--|
||--x---x------x---7-9---||-x---x------x---7-9--|
||o---------------------o||---------------------|
||-----------------------||---------------------|


                   ~~                    ~~
  E E E E E    E S E.   E E E E E    E S E.
|---------------------|----------------------|
|-x---x---x-----------|-x---x---x------------|
|-x---x---x------x-x--|-x---x---x------x-x---|
|-x---x---x------7-9--|-x---x---x------7-9---|
|---------------------|----------------------|
|---------------------|----------------------|
|
| Q   Q   S E.   Q      Q   Q   S E.   Q
|-----9---7-----------|----------------------|
|-----9---7-----------|----------------------|
|-----9---7-----------|----------------------|
|---------------------|-----6---4------------|
|---------------------|-----7---5------------|
|---------------------|----------------------|
                      |-Rhy Fig 2         ---|

w/Rhy Fig 2 x3
                                                        H=H
                   ~~                    ~~                    ~~
  E E E E E    E S E.   E E E E E    E S E.   E E E E E    E S E.
|---------------------|---------------------|----------------------|
|-x---x---x-----------|-x---x---x-----------|-x---x---x------------|
|-x---x---x-----------|-x---x---x------x-x--|-x---x---x------x-x---|
|-x---x---x------7h9--|-x---x---x------7-9--|-x---x---x------7-9---|
|---------------------|---------------------|----------------------|
|---------------------|---------------------|----------------------|

w/Rhy Fig 3           |-w/Rhy Fill 1 x3
                   ~~                    ~~                    ~~
  E E E  E   E E S E.   E E E  E   E E S E.   E E E  E   E E S E.
|---------------------|---------------------|----------------------|
|-x---x------x--------|-x---x------x--------|-x---x------x---------|
|-x---x------x---x-x--|-x---x------x---x-x--|-x---x------x---x-x---|
|-x---x------x---7-9--|-x---x------x---7-9--|-x---x------x---7-9---|
|---------------------|---------------------|----------------------|
|---------------------|---------------------|----------------------|


  H.=H                |-w/Rhy Fig 2 x2
                   ~~                    ~~                    ~~
  E E E  E   E E S E.   E E E E E    E S E.   E E E E E    E S E.
|---------------------|---------------------|----------------------|
|-x---x------x--------|-x---x---x-----------|-x---x---x------------|
|-x---x------x---x-x--|-x---x---x------x-x--|-x---x---x------------|
|-x---x------x---7-9--|-x---x---x------7-9--|-x---x---x------7h9---|
|---------------------|---------------------|----------------------|
|---------------------|---------------------|----------------------|


                                                   H.=H
                5/4                                           4/4
                                                                ~~~
  E E Q   H      E  S S  S S  S S  S S S S S S S S  S  S S S    H     H
|--------------|---10-7-10-7---------------------------------:-------------*|
|-x------------|-------------10-7-10-7-----------------------:-------------*|
|-x------------|-----------------------9-7-9-7---------------:-------------*|
|-x------------|-------------------------------9-7--9--7-----:-------------*|
|--------------|-----------------------------------------9-7-:--9----------*|
|--------------|---------------------------------------------:-------------*|
|
| Q   H.         W                                 +Q          +H     H
|--------------|---------------------------------------------:-------------*|
|--------------|---------------------------------------------:-------------*|
|-----6--------|-4---------------------------------(4)-------:-(4)---------*|
|-----6--------|-4---------------------------------(4)-------:-(4)---------*|
|-----7--------|-6---------------------------------(6)-------:-(6)---------*|
|--------------|---------------------------------------------:-------------*|

THE THRILL IS GONE
(From the 1971 Album LIVE IN COOK COUNTY JAIL)

Gtr I (E A D G B E) - 'B.B. King'
Gtr II (E A D G B E) - 'Piano and Horns arr. for guitar'

Intro
  Q=96
 4/4
  Gtr I
                                   ~~~~        ~~                        ~~
  H.      Q     E E Q  Q   E E     E  E Q  Q   E  E    E     E    Q  Q   E  E
|-8----------|------------10---|-----------------10-|-12b14-12b14----------10-|
|-8----------|-12--------------|-(12)---------12----|-------------------12----|
|-9----------|-----------------|--------------------|-------------------------|
|------------|-----------------|--------------------|-------------------------|
|------------|-----------------|--------------------|-------------------------|
|------------|-----------------|--------------------|-------------------------|


                  ~~                                  ~~
   E  E     E  e  E  E  E  e    E  e E   E  S  S   E  E  e
|-12-12b14-10-12----10----10-|----------10-12p10--------10-|
|----------------12----10-12-|-12-12--------------12-12-12-|
|----------------------------|-13--------------------------|
|----------------------------|-----------------------------|
|----------------------------|-----------------------------|
|----------------------------|-----------------------------|
      ~~          ~~
  Q   E  E  S  S  E  a  E  E
|-------10-12p10----10h11-12b14==|
|----12----------12--------------|
|--------------------------------|
|--------------------------------|
|--------------------------------|
|--------------------------------|

    ~~~~                     ~~~~             ~                      ~~
   +E  E Q  Q   E  +E      e E E  S S S S S S E E   Q   S  E.  S  S  E E E
|-(12)---------19-(19)\-|-10-7-7----------------x-|----10h12--10-------x---|
|-----------------------|--------10-7-----7-----x-|--------------12-12-x---|
|-----------------------|-------------7-9---7-----|------------------------|
|-----------------------|---------------------9---|------------------------|
|-----------------------|-------------------------|------------------------|
|-----------------------|-------------------------|------------------------|


  E  E  E  E  S  S  S S  S  S  S S
|------10-12-12p10------12p10------|
|---12-------------12---------12---|
|----------------------------------|
|----------------------------------|
|----------------------------------|
|----------------------------------|


                 ~~~~~~~~                       ~        ~~~~~~
   S     +S   T  S.  +E.  S   S S S S S S S S   Q  S S S S +E  E E E
|-12b14r(12)-10--------------10p7-------------|------------------7---||
|---------------12--(12)-(x)------7-----7-----|------------------9---||
|-----------------------------------7h9---7---|----7-----------------||
|-------------------------------------------9-|-9----9-7-------------||
|---------------------------------------------|----------9-(9)-------||
|---------------------------------------------|----------------------||


 Verse 1
  Gtr II
  Q  E E +Q   S E.   Q  E  E  +Q   S E.
|------------------|--------------------|
|---------------9--|-7----10-(10)----9--|
|-7----7-(7)----9--|-7-----7--(7)----9--|
|-7----7-(7)----9--|-7---------------9--|
|------------------|--------------------|
|------------------|--------------------|


  Q   H    S E.   e E E E +E  E +S  E.
|---------------|-------7-(7)-7-(7)-9---|
|-7--10------9--|-------7-(7)-7-(7)-----|
|-7---7------9--|-7-7-------------------|
|-7---7------9--|-7-7-------------------|
|---------------|-----------------------|
|---------------|-----------------------|


  Q  E S S +E  Q  E   +E   E Q  Q  E  E   Q  E E +Q   S S S  S
|-7--7-7-------7--7-|-(7)-10-7--7--7----|-7--7-7-(7)-------------|
|-8--8---8-(8)-8--8-|-(8)--8-8--8--8-10-|-7--7-7-(7)--7----------|
|-9--9---------9--9-|-(9)--9-9--9--9----|-7--7-7-(7)----7-9p(7)--|
|-------------------|-------------------|------------------------|
|-------------------|-------------------|------------------------|
|-------------------|-------------------|------------------------|


   |-3-|                    |-3--|
   S S S S S Q  +S  S S S E S S  S    E S S +E  E Q  Q     Q.    E  Q   E  E
|-----------------------------------|-------------------|--9-----9-12--12----|
|-----------------------------------|-------------------|-11----11-11--11-10-|
|-11p9p7----------------7---9p7-----|-9-7-------7-7--7--|--9-----9-11--11----|
|--------9-7-9--(9)-7h9---------(9)-|-----9-(9)---9--9--|--------------------|
|-----------------------------------|-------------------|--------------------|
|-----------------------------------|-------------------|--------------------|





                                                          Verse 2 + 3
                        |-3-|
  e E H    S S S  S     S S S S S E. S S S S S +S  S E     W
|-7---7--------------|---------------------------------||--7----|
|-7---7----7---------|---------------------------------||o-7----|
|-7---7------7-9p(7)-|-11p9p7--------------------------||--7----|
|--------------------|--------9-7-9--7---7-9-9-(9)-9---||-------|
|--------------------|-----------------9---------------||o------|
|--------------------|---------------------------------||-------|
                                                        |-Rhy Fig 1

  +H     Q  Q    W          H    Q  Q
|-(7)----9--5--|-7--------|------9--5--|
|-(7)----9--5--|-7--------|------7--7--|
|-(7)----9--6--|-7--------|------6--7--|
|--------------|----------|------------|
|--------------|----------|------------|
|--------------|----------|------------|


  W          +Q   Q   Q  Q    W          +H     H
|-7--------|-(7)------9--7--|-7--------|-(7)---------|
|-8--------|-(8)-----10--8--|-7--------|-(7)---------|
|-9--------|-(9)-----11--9--|-7--------|-(7)---------|
|----------|----------------|----------|-------------|
|----------|----------------|----------|-------------|
|----------|----------------|----------|-------------|


                                  1.               2.
  W          W          W          +H     H         H.      Q
|----------|----------|-7--------|-(7)----------||-(7)-----------||
|-8--------|-7--------|-7--------|-(7)---------o||-(7)-----------||
|-7--------|-6--------|-7--------|-(7)----------||-(7)-----------||
|-9--------|-8--------|----------|--------------||---------------||
|----------|----------|----------|-------------o||---------------||
|----------|----------|----------|--------------||---------------||
                                  end Rhy Fig 1-|

 Verse 4
  Faster Q=108
  Q  E E +E  E S E.   E E E  E  +E   E S E.    E  E E  E  +E   E S E.
|------7-(7)-7------|-7-7-------------------|-------------------------|
|------7-(7)-7---9--|-7-7---10-(10)-10---9--|-10-10---10-(10)-10---9--|
|------7-(7)-7---9--|-7-7----7--(7)--7---9--|--7--7----7--(7)--7---9--|
|------7-(7)-7---9--|-7-7----7--(7)--7---9--|--7--7----7--(7)--7---9--|
|-------------------|-----------------------|-------------------------|
|-------------------|-----------------------|-------------------------|


   E  E E  E  +E   E S E.   E E E E +E  E S E.    E  E E E +E  E E  E
|-------------------------|-7-7---7-(7)-7---7--|-12-12---7-(7)-7-7----|
|-10-10---10-(10)-10---9--|-8-8---8-(8)-8---8--|-12-12---8-(8)-8-8-10-|
|--7--7----7--(7)--7---9--|-9-9---9-(9)-9---9--|-12-12---9-(9)-9-9----|
|--7--7----7--(7)--7---9--|--------------------|----------------------|
|-------------------------|--------------------|----------------------|
|-------------------------|--------------------|----------------------|


  E E E  E  +E   E S E.    E  E E  E  +E   E S  E.    Q   E  E E  Q   E
|-7-7-------------------|--------------------------|--------------------|
|-7-7---10-(10)-10---9--|-10-10---10-(10)-10---11--|-12--12-12---12--12-|
|-7-7----7--(7)--7---9--|--7--7----7--(7)--7-------|-12--12-12---10--10-|
|-7-7----7--(7)--7---9--|--7--7----7--(7)--7---11--|-12--12-12---12--12-|
|-----------------------|--------------------------|--------------------|
|-----------------------|--------------------------|--------------------|


  Gtr I
   W                 W                  H             Q    E  e
|------------------|-----------------|--------------------------||
|------------------|-----------------|-----------------------12-||
|------------------|-----------------|--------------------11----||
|------------------|-----------------|--------------------------||
|------------------|-----------------|--------------------------||
|------------------|-----------------|--------------------------||
|
| Gtr II
|                                       |-3-|
|  Q.    E  Q   Q    Q  H    S S S S    S S S S S E E E E  E  E
|----------12--12--|-7--7------------|--------------------------||
|-11----11-11--11--|-7--7----7-------|--------------------------||
|--9-----9-11--11--|-7--7------7-9p7-|-11p9p7-------------------||
|-11----11---------|-----------------|--------9-7-9-7-----------||
|------------------|-----------------|----------------9-7-------||
|------------------|-----------------|--------------------10--7-||


 Guitar Solo
w/Rhy Fig 1
  Gtr I
   ~~                                    ~~                        ~~
   E E Q  Q   E       E    E  S S Q  Q   E  E    E     E    Q  Q   E  E
|------------10b10.5-12-|------------------10-|-12b14-12b14----------10-|
|-12--------------------|-12-12---------12----|-------------------12----|
|-----------------------|---------------------|-------------------------|
|-----------------------|---------------------|-------------------------|
|-----------------------|---------------------|-------------------------|
|-----------------------|---------------------|-------------------------|


                  ~~
   E  E     E  e  E  e  E  e
|-12-12b14-10-12----10-------|
|----------------12----10-12-|
|----------------------------|
|----------------------------|
|----------------------------|
|----------------------------|


                              ~~~~~~~
   E  e  E  e  E  E     S  S  E    Q   E      E E  Q.
|----------10-12-12b14-12-10----|-----10b10.5-----19----|
|-12-12-12-------------------12-|-12--------------------|
|-13----------------------------|-----------------------|
|-------------------------------|-----------------------|
|-------------------------------|-----------------------|
|-------------------------------|-----------------------|


                         ~                 ~      ~~
   +Q    E  E      +Q    Q     S S S S S S E e E  Q
|-(19)\----10b11==(10)r--7--|----------------7-------|
|---------------------------|-10-7-----7-----7---12--|
|---------------------------|------7-9---7---7-------|
|---------------------------|--------------9-9-------|
|---------------------------|------------------------|
|---------------------------|------------------------|


   S  E.  +Q    +E   E     S  S  e
|-10h12--(12)--(12)-12b14-12-10----|
|-------------------------------12-|
|----------------------------------|
|----------------------------------|
|----------------------------------|
|----------------------------------|


                                       ~~~~~~~
   Q  S E. E  e  E  e    S     +S   S  S  +Q   E  S S S S S S
|---------------10-12-|-12b14r(12)p10------------10-7---------|
|-12--x------12-------|---------------12-(12)---------7-----7-|
|---------------------|---------------------------------7-9---|
|---------------------|---------------------------------------|
|---------------------|---------------------------------------|
|---------------------|---------------------------------------|


    ~~       ~~~~~~    ~~
  S E. S S S S +E. S S E.
|-------------------------||
|-------------------------||
|-7----7------------------||
|---9----9-7---------7-9--||
|------------9-(9)-9------||
|-------------------------||


 Outro
  Gtr I
                                   ~
  E E Q     S S S  S S S S S   S S E Q     S E S S E.
|-x--------------------------|------------------------|
|-x-----------5s7-10-7-----7-|------------------------|
|-x--------------------7-9---|-7-----------------7h9--|
|----------------------------|---9-9---------9--------|
|----------------------------|------------------------|
|----------------------------|------------------------|
|
| Gtr II
| Q   S E S H
|-----7-7-7------------------|
|-----7-7-7------------------|
|-----7-7-7------------------| w/Rhy Fig 2 x3
|----------------------------|
|----------------------------|
|----------------------------|
|-Rhy Fig 2    end Rhy Fig 2-|

  E  E  Q     S  E S     +S   S S S
|----------------7------------------|
|---------------10------------------|
|-7----------------9b11==(9)r-9-7---|
|---(9)---------------------------9-|
|-----------------------------------|
|-----------------------------------|


  ~
  Q  Q     S E S S E.   E    S  S Q    S E  S S  S S  S
|---------------------|------------------7--7----7------|
|---------------------|------------------7-10---10---10-|
|----------------7h9--|-7b8==7r-------------------------|
|-9----------9-9------|---------------------------------|
|---------------------|---------------------------------|
|---------------------|---------------------------------|
|
|                       Q         E. S H
|---------------------|-----------9--7------------------|
|---------------------|-----------9--7------------------|
|---------------------|-----------9--7------------------|
|---------------------|---------------------------------|
|---------------------|---------------------------------|
|---------------------|---------------------------------|
                      |-Rhy Fill 1       end Rhy Fill 1-|

  ~
  E S S Q    S E S     +S   S S S
|-7-7-----------------------------|
|---------------------------------|
|----------------9b11==(9)r-9-7---|
|--------------9----------------9-|
|---------------------------------|
|---------------------------------|
|
| Q     E. S H
|---------------------------------|
|---------------------------------|
|---------------------------------|
|-------9--7----------------------|
|-------7--5----------------------|
|---------------------------------|
|-Rhy Fig 3         end Rhy Fig 3-|

w/Rhy Fig 3 x10
                        H.=H
  ~                ~~                    ~~                    ~~
  Q  E  E   E. S s E.   S E. Q    E. S S E.   S E. Q    E. S s E.
|---------------------|---------------------|---------------------||
|----x----------------|---------------------|---------------------||
|----x----------------|---------------------|---------------------||
|-9--------------7-9--|-9--------------7-9--|-9--------------7-9--||
|--------------9------|--------------9------|--------------9------||
|---------------------|---------------------|---------------------||


  A Tempo Q=96
                   ~~
  S E. Q    E. S s E.   S S E S  E S S S S S S  S  S  S
|---------------------|-----7-x----x---x-----------------|
|---------------------|-----7-x----x---x-----------------|
|---------------------|-------x----x---x-----------------|
|-9--------------7-9--|-9--------------------7-(7)-9p(7)-|
|--------------9------|--------------------9-------------|
|---------------------|----------------------------------|


  ~
  E S S S  E S S S S S S S S S
|-------x----x---x-------------|
|-------x----x---x-------------|
|-------x----x---x-------------|
|-9-9------------------7-7-9-7-|
|--------------------9---------|
|------------------------------|


  ~
  E S S S  E S S S S S S  S  S S
|-------x----x---x---------------|
|-------x----x---x---------------|
|-------x----x---x---------------|
|-9-9------------------7-(7)-9-7-|
|--------------------9-----------|
|--------------------------------|


 Gtr I Q=96(16=s16)
  ~                                ~
  E S S S  E S S S S S S S S  S    E S  S S  E S S S S S S S S S
|-------x----x---x---------------|--------x----x---x---------------|
|-------x----x---x---------------|--------x----x---x---------------|
|-------x----x---x---------------|--------x----x---x---------------|
|-9-9------------------7-7-9p(7)-|-9-9\------------------7-7-9-----|
|--------------------9-----------|---------------------9-----------|
|--------------------------------|---------------------------------|


  ~
  E S S S  E S S S S S S S S S
|-------x----x---x-------------|
|-------x----x---x-------------|
|-------x----x---x-------------|
|-9-9------------------7-7-9---|
|--------------------9---------|
|------------------------------|

w/Rhy Fill 2 x2
  ~                              ~
  E S S S  E S S S S S S S S S   E S S Q    S S S S S S S S
|-------x----x---x-------------|----------------------------|
|-------x----x---x-------------|----------------------------|
|-------x----x---x-------------|--------------------7h9-9---|
|-9-9------------------7-7-9---|-9-9----------9---9---------|
|--------------------9---------|----------------------------|
|------------------------------|----------------------------|


w/Rhy Fig 3 x15
                          ~
  E E Q    S E.   S S e   E E Q    S  S S  S S  S S  S
|-----------------------|------------------------------|
|-----------------------|-----------------12---12---12-|
|-7----------9b11-9-7---|------------11----------------|
|---------------------9-|-9----------------------------|
|-----------------------|------------------------------|
|-----------------------|------------------------------|


   E       S S Q    S  S S  S S  S S  S
|-10b10.5-12---------------10---12---12b14==|
|---------12----------12--------12----------|
|-------------------------------------------|
|-------------------------------------------|
|-------------------------------------------|
|-------------------------------------------|


   +E   E Q    S  S S  S      +S    S  S  S
|-(12)r---------------12b14==(12)r-12-10----|
|----------------12----------------------12-|
|-------------------------------------------|
|-------------------------------------------|
|-------------------------------------------|
|-------------------------------------------|


   ~~
   E  S S Q    S  S S  S        +S    E  S    E      +E   Q    S  S S  S      +Q
|---------------------10b10.5==(10)r-12-12-|-10b11==(10)r-------------12b14==(12)r--|
|-12-12----------12------------------------|---------------------12-----------------|
|------------------------------------------|----------------------------------------|
|------------------------------------------|----------------------------------------|
|------------------------------------------|----------------------------------------|
|------------------------------------------|----------------------------------------|


         ~~~~~~~
   |--3--|
   S  S  S  +Q.      E.  S S  S S S
|-12p10-----------------19---19---x-|
|-------12-(12)-------------------x-|
|-----------------------------------|
|-----------------------------------|
|-----------------------------------|
|-----------------------------------|


                                        ~
   E.  +S   Q    S e S     +S   S S S   E S S Q    S S S S S S S S
|-19--(19)s14\------------------------|----------------------------|
|-------------------------------------|----------------------------|
|--------------------9b11==(9)r-9-7---|--------------------7-9-9---|
|------------------9----------------9-|-9-9----------9-9-9---------|
|-------------------------------------|----------------------------|
|-------------------------------------|----------------------------|


  ~~~~                                     ~
  E    S  S Q    S  S S S     +S   S S S   E S S Q    S S S  S S  S S  S
|-------------------7--------------------|-------------------------------|
|------------------10--------------------|--------------7---10---10---10-|
|-7b8==7r---------------9b11==(9)r-9-7---|-------------------------------|
|--------------------------------------9-|-9-9---------------------------|
|----------------------------------------|-------------------------------|
|----------------------------------------|-------------------------------|


  ~
  E S S Q    S S S  S      +S   S     S  S
|-7-7----------7---10b12==(10)-10-------10r-|
|------------------------------10pb12-------|
|-------------------------------------------|
|-------------------------------------------|
|-------------------------------------------|
|-------------------------------------------|



   ~~~~~
   H          S S S  S      +E    s S
|-10b11---------7---10b12==(10)r-10-7-|
|-------------------------------------|
|-------------------------------------|
|-------------------------------------|
|-------------------------------------|
|-------------------------------------|


 Gtr I Q=96
  ~                ~                    ~~
  Q  Q    E. S S S E   E E E  E   E E S E.
|-7------------------|---------------------||
|--------------------|------------x--------||
|--------------------|-----x------x---x-x--||
|--------------7-9-9-|-x---x------x---7-9--||
|------------9-------|---------------------||
|--------------------|---------------------||


w/Rhy Fill 1 x7
    H=H                         H.=H
                     ~~                      ~~
    E E E  E   E E S E.  6x E E E  E   E E S E.
||-----------------------||---------------------|
||o-x---x------x--------o||-x---x------x--------|
||--x---x------x---x-x---||-x---x------x---x-x--|
||--x---x------x---7-9---||-x---x------x---7-9--|
||o---------------------o||---------------------|
||-----------------------||---------------------|


                   ~~                    ~~
  E E E E E    E S E.   E E E E E    E S E.
|---------------------|----------------------|
|-x---x---x-----------|-x---x---x------------|
|-x---x---x------x-x--|-x---x---x------x-x---|
|-x---x---x------7-9--|-x---x---x------7-9---|
|---------------------|----------------------|
|---------------------|----------------------|
|
| Q   Q   S E.   Q      Q   Q   S E.   Q
|-----9---7-----------|----------------------|
|-----9---7-----------|----------------------|
|-----9---7-----------|----------------------|
|---------------------|-----6---4------------|
|---------------------|-----7---5------------|
|---------------------|----------------------|
                      |-Rhy Fig 2         ---|

w/Rhy Fig 2 x3
                                                        H=H
                   ~~                    ~~                    ~~
  E E E E E    E S E.   E E E E E    E S E.   E E E E E    E S E.
|---------------------|---------------------|----------------------|
|-x---x---x-----------|-x---x---x-----------|-x---x---x------------|
|-x---x---x-----------|-x---x---x------x-x--|-x---x---x------x-x---|
|-x---x---x------7h9--|-x---x---x------7-9--|-x---x---x------7-9---|
|---------------------|---------------------|----------------------|
|---------------------|---------------------|----------------------|

w/Rhy Fig 3           |-w/Rhy Fill 1 x3
                   ~~                    ~~                    ~~
  E E E  E   E E S E.   E E E  E   E E S E.   E E E  E   E E S E.
|---------------------|---------------------|----------------------|
|-x---x------x--------|-x---x------x--------|-x---x------x---------|
|-x---x------x---x-x--|-x---x------x---x-x--|-x---x------x---x-x---|
|-x---x------x---7-9--|-x---x------x---7-9--|-x---x------x---7-9---|
|---------------------|---------------------|----------------------|
|---------------------|---------------------|----------------------|


  H.=H                |-w/Rhy Fig 2 x2
                   ~~                    ~~                    ~~
  E E E  E   E E S E.   E E E E E    E S E.   E E E E E    E S E.
|---------------------|---------------------|----------------------|
|-x---x------x--------|-x---x---x-----------|-x---x---x------------|
|-x---x------x---x-x--|-x---x---x------x-x--|-x---x---x------------|
|-x---x------x---7-9--|-x---x---x------7-9--|-x---x---x------7h9---|
|---------------------|---------------------|----------------------|
|---------------------|---------------------|----------------------|


                                                   H.=H
                5/4                                           4/4
                                                                ~~~
  E E Q   H      E  S S  S S  S S  S S S S S S S S  S  S S S    H     H
|--------------|---10-7-10-7---------------------------------:-------------*|
|-x------------|-------------10-7-10-7-----------------------:-------------*|
|-x------------|-----------------------9-7-9-7---------------:-------------*|
|-x------------|-------------------------------9-7--9--7-----:-------------*|
|--------------|-----------------------------------------9-7-:--9----------*|
|--------------|---------------------------------------------:-------------*|
|
| Q   H.         W                                 +Q          +H     H
|--------------|---------------------------------------------:-------------*|
|--------------|---------------------------------------------:-------------*|
|-----6--------|-4---------------------------------(4)-------:-(4)---------*|
|-----6--------|-4---------------------------------(4)-------:-(4)---------*|
|-----7--------|-6---------------------------------(6)-------:-(6)---------*|
|--------------|---------------------------------------------:-------------*|





Comments


Popular B. B. King tabs & chords
The Thrill Is Gone Bass Tabs
Help The Poor Chords
The Blues Come Over Me Chords
Baby I Love You Tabs
Blues Boy Tune Intro Tabs
Easy Blues Riff Intro Tabs
Key To The Highway Tabs
Lucille Intro Tabs
Ten Long Years Tabs
Worried Life Blues Tabs


Song lyrics



↑ Back to top | Tablatures and chords are parodies/interpretations of the original songs. You may use it for private study, scholarship, research or language learning purposes only
© 2014 AZChords.com Contact us | Privacy policy | DMCA | Add/correct tabs | Request tabs | Top 50 tabs