» » »

B. B. King, The Thrill Is Gone Bass tabs (ver.1)

Artists:  A B C D E F G H I J K L M N O P Q R S T U V W X Y Z # 

The Thrill Is Gone Bass tabs (ver.1)

B. B. King Tabs
 Rating:
4/5 (5 votes)
The Thrill Is Gone lessons Tabs too difficult? Try these video lessons and learn fast
                B.B.King

4 string
G|-------------------------------------------------------------------------------|
D|-------------------------------------------------1-2-2-------1-2-2------0------|
A|2-2-------1-2-2-------1-2-2--------1-2-2-------2-------1-2-2-------1-2-2--4-2-2|
E|----1-2-2-------1-2-2-------1-2-2--------1-2-2---------------------------------|


G|----------------------------------------------------------------------------|
D|----------------------------5-5---4-4---------------------------------------|
A|------1-2-2-------2-0-----5-----4-----4-----0-1-2-2-------1-2-2-----0-0-1-1-|
E|1-2-2-------1-2-2-----3-3---------------2-2---------1-2-2-------2-2---------|

5 String
G|-------------------------------------------------------------------------------|
D|-------------------------------------------------------------------------------|
A|------------------------------------------------6-7-7-------6-7-7-------5-4----|
E|7-7-------6-7-7-------6-7-7-------6-7-7-------7-------6-7-7-------6-7-7-----7-7|
B|----6-7-7-------6-7-7-------6-7-7-------6-7-7----------------------------------|

G|-----------------------------------------------------------------------------|
D|-----------------------------------------------------------------------------|
A|-----------------------------10-10---9-9-------------------------------------|
E|------6-7-7-------7-5-----10-------9-----9-----5-6-7-7-------6-7-7----5-5-6-6|
B|6-7-7-------6-7-7-----8-8------------------7-7---------6-7-7-------7-7-------|

Enjoy!
            
Submit corrections

comments powered by Disqus
↑ Back to top | B. B. King Bass for The Thrill Is Gone. Lyrics for acoustic guitar and electric guitar. Tablatures and chords are parodies/interpretations of the original songs. You may use it for private study, scholarship, research or language learning purposes only