» » »

B. B. King, The Blues Come Over Me Tabs (ver.1)

Artists:  A B C D E F G H I J K L M N O P Q R S T U V W X Y Z # 

The Blues Come Over Me Tabs (ver.1)

B. B. King Tabs
 Rating:
4/5 (4 votes)
The Blues Come Over Me lessons Tabs too difficult? Try these video lessons and learn fast
1
                			     The Blues Come Over Me - B.B. King

Tuning:EADGBE                                           
 
 one warning:

 -all bends marked with * means that they are not 1/2 bends, sometimes
  they are "bigger", sometimes "smaller" than 1/2 and it`s really hard to write 
  them down. They are just tipically BB`s bends and listening to a song you 
  should get what i mean....


 intro:                                                ~~~

e|---------|---------------------------|-------------------------------------|
B|------12-|--14b16r14b16--------12--14|-14-12-14-12--------------12-14b16r--|
G|---13----|----------------13---------|-------------13-13-------------------|
D|---------|---------------------------|-------------------------------------|
A|---------|---------------------------|-------------------------------------|
E|---------|---------------------------|-------------------------------------|
                                              ~~
e|---------------------|------------------*--------*-------------------------|
B|---14b16-------12-14-|-14-12-14b16--14-12b------12b------------------------|
G|------------13-------|----------------------13-----------------------------|
D|---------------------|-----------------------------------------------------|
A|---------------------|-----------------------------------------------------|
E|---------------------|-----------------------------------------------------|
                             ~~~                 ~~~
e|-----------*------------------|----*-----------------|-------------*-------|
B|---16b19--14b-14--12-14-12----|---11r---11-----------|------12-14-14b-14---|
G|---------------------------13-|-------------13-13----|--13-----------------|
D|------------------------------|----------------------|---------------------|
A|------------------------------|----------------------|---------------------|
E|------------------------------|----------------------|---------------------|
                               ~~~
e|-------*-------------------------------------------------------------------|
B|---12-14b-14-14----12--14-12-----------------------------------------------|
G|-----------------------------13--------------------------------------------|
D|---------------------------------------------------------------------------|
A|---------------------------------------------------------------------------|
E|---------------------------------------------------------------------------|

   
 
 2:54   
                        ~~~                                ~~~
e|--------|-------------------|----------------------------------------*-----|
B|-16b19--|-14-12-------------|-----12-14-14b16-14-12b14-12--------14-12b----|
G|--------|-------13-13-13----|--13-------------------------13---------------|
D|--------|-------------------|----------------------------------------------|
A|--------|-------------------|----------------------------------------------|
E|--------|-------------------|----------------------------------------------|
                      ~~~                   ~~~
e|--------|--*-------------------------------------|-------------------------|
B|-16b19--|-14b-14-12--------------------12--------|-------------------------|
G|--------|-----------13\-----------13------13-----|---11-----*--------------|
D|--------|--------------------13------------------|------13-11b-11----------|
A|--------|----------------------------------------|-------------------------|
E|--------|----------------------------------------|-------------------------|
                                              ~~~
e|---------------------------------|-----------------------------------------|
B|---------------------------------|----------------------*------*-----------|
G|-----------*---*-------------*---|-------11-13---------14br12-14br12-14b16-|
D|---11-(9)-11b-9b-----11-(9)-11b--|----13-----------------------------------|
A|---------------------------------|-----------------------------------------|
E|---------------------------------|-----------------------------------------|
                                   ~~~                                ~~
e|---------------------------------------------|----16\---------*------------|
B|------12--14--12--14--12-14b16---------------|---------------14b-12----12\-|
G|---13----------------------------13----------|----------------------13-----|
D|---------------------------------------------|-----------------------------|
A|---------------------------------------------|-----------------------------|
E|---------------------------------------------|-----------------------------|

       ~~        ~~~
e|---------------------------------------------------------------------------|
B|---12b14----12-------------------------------------------------------------|
G|---------------13----------------------------------------------------------|
D|---------------------------------------------------------------------------|
A|---------------------------------------------------------------------------|
E|---------------------------------------------------------------------------|


 
 4:11
                           ~~              ~~
e|----*----------*------------------*----------*-----------------------------|
B|---14br-14-12-14b--14-12----12---14b--12----12b----------------------------|
G|-------------------------13--------------13--------------------------------|
D|---------------------------------------------------------------------------|
A|---------------------------------------------------------------------------|
E|---------------------------------------------------------------------------|

                                               ~~
e|-----------*------------------------*-----------------16\----*-------------|
B|---16b19--14b-14-12-14-12-14-12-14-14b-14-12----------------14b-14-12-14b16|
G|---------------------------------------------13----------------------------|
D|---------------------------------------------------------------------------|
A|---------------------------------------------------------------------------|
E|---------------------------------------------------------------------------|

                                  ~~
e|-------------------------------------*---------------------*---------------|
B|---16b19---19-16-19-16-14-12--------11r--11---------------12b--------------|
G|-----------------------------13-13----------13--13-13\--------13-----------|
D|---------------------------------------------------------------------------|
A|---------------------------------------------------------------------------|
E|---------------------------------------------------------------------------|

                                                            ~~~
e|----------------------|-------------*-----------------------------*--------|
B|----------------------|------14-12-14b-14-12h14---12-12-12-------12b----12-|
G|---(11)----*---*------|------------------------------------13--------13----|
D|-------13-11b-9b------|----------------------------------------------------|
A|----------------------|----------------------------------------------------|
E|----------------------|----------------------------------------------------|


e|----------------------------------|------------*---------------------------|
B|--14b16-14b16-------12h14-12------|---16b19---14b-14-12---12b14-12-----12\-|
G|-----------------13----------13---|--------------------------------13------|
D|----------------------------------|----------------------------------------|
A|----------------------------------|----------------------------------------|
E|----------------------------------|----------------------------------------|

       ~~~
e|-----------*-----*---------------------------------------------------------|
B|----------12b---14br12-----------------------------------------------------|
G|13-13-13-------------------------------------------------------------------|
D|---------------------------------------------------------------------------|
A|---------------------------------------------------------------------------|
E|---------------------------------------------------------------------------|


| /  slide up
| \  slide down
| h  hammer-on
| p  pull-off
| ~  vibrato
| +  harmonic
| x  Mute note
            
Submit corrections

comments powered by Disqus
↑ Back to top | B. B. King Tabs for The Blues Come Over Me. Lyrics for acoustic guitar and electric guitar. 1 Tablatures and chords are parodies/interpretations of the original songs. You may use it for private study, scholarship, research or language learning purposes only