>
 >
Sweet Sixteen

Sweet Sixteen Bass Tabs

B. B. King - Sweet Sixteen chords, tabs, tablatures, lyrics

Guitar lessons | Add/correct | Request | Top 50 tabs Artists:  A B C D E F G H I J K L M N O P Q R S T U V W X Y Z 0-9

Sweet Sixteen Bass Tabs – B. B. King

CD, Sheet music, Poster

Do you like Sweet Sixteen? Share with your friends now
Bass TabsTabs
Sweet Sixteen Tab by Bb King :
bb king - sweet sixteen

tunein G,D,A,E



	Timeing 4/4

      
|------------------------1-------|0-----------------------4---7---|
|0---------------0---------------|--------------------------------|
|--------------------------------|--------------------------------|
|--------------------------------|--------------------------------|

       
|--------------------------------|--------2---------------1-------|
|0-------------------------------|0---------------0---------------|
|--------3-------2-------0-------|--------------------------------|
|--------------------------------|--------------------------------|

   
|0---------------1---------------|0-------------------------------|
|--------------------------------|----------------3-------2-------|
|--------------------------------|--------------------------------|
|--------------------------------|--------------------------------|

      
|--------------------------------|--------2-------------------1---|
|0-------------------------------|0---------------0-------4-------|
|--------3-------2-------0-2-4---|--------------------------------|
|--------------------------------|--------------------------------|

      
|2-------2-------2-------2---1---|0---------------0---------------|
|--------------------------------|--------------------------------|
|--------------------------------|------------------------0-2-4---|
|--------------------------------|--------------------------------|

       
|----------------0-------1-------|2-------2-------2---------------|
|0-------4-----------------------|--------------------------------|
|--------------------------------|------------------------0-2-4---|
|--------------------------------|--------------------------------|

      
|--------------------------------|0---------------0---------------|
|0---------------0-------0-------|--------------------------------|
|--------------------------------|--------------------------0-----|
|--------------------------------|--------------------------------|

      
|--------------------------------|--------------------------------|
|0-------0-------1-------1-------|0-------------------------------|
|--------------------------------|--------------------------------|
|--------------------------------|----------------4-------4-------|

       
|--------------------------------|--------------------------------|
|--------------------------------|--------3-------2-------1-------|
|--------------------------------|--------------------------------|
|3-------3-------4-------4-------|3-------------------------------|

        
|--------------------------------|--------2-----------------0-----|
|0-------------------------------|0---------------0-------4-------|
|--------3-------2-------0-2-4---|--------------------------------|
|--------------------------------|--------------------------------|

       
|2---------------2-------2---1---|0-------0-------0---------------|
|--------------------------------|----------------------------2---|
|--------------------------------|------------------------0-2-----|
|--------------------------------|--------------------------------|

    
|------------------------1-------|2-------2-----------------------|
|0-------------------------------|--------------------------------|
|--------------------------------|----------------0-------0---4---|
|--------------------------------|--------------------------------|

      
|--------------------------------|0-------------------------------|
|----------------0-------0-------|--------3-------2-------1-------|
|--------------------------------|--------------------------------|
|--------------------------------|--------------------------------|

        
|--------------------------------|------------------------1-------|
|0-------------------------------|0---------------0---------------|
|--------3-------2-------0-------|--------------------------------|
|--------------------------------|--------------------------------|

       
|0-------------------------------|0-------------------------------|
|--------3-------2-------0-------|--------3-------2-------1-------|
|--------------------------------|--------------------------------|
|--------------------------------|--------------------------------|

     
|--------------------------------|--------------------------------|
|0-------------------------------|0---------------0-------4-------|
|--------3-------2-------0-------|--------3-----------------------|
|--------------------------------|--------------------------------|

        
|2---------------2---------2-1---|0-------0-------0---------------|
|--------------------------------|----------------------------2---|
|--------------------------------|------------------------0-------|
|--------------------------------|--------------------------------|

      
|----------------0-------1-------|2-------------------------------|
|0-------4-----------------------|--------------------------------|
|--------------------------------|----------------0---------------|
|--------------------------------|--------------------------------|

       
|--------------------------------|0-------------------------------|
|0---------------0-------0-------|--------3-------2-------1-------|
|--------------------------------|--------------------------------|
|--------------------------------|--------------------------------|

       
|--------------------------------|------------------------1-------|
|0-------------------------------|0---------------0---------------|
|--------3-------2-------0-------|--------0-----------------------|
|--------------------------------|--------------------------------|

      
|0---------------1---------------|0-------0-------0---------------|
|--------------------------------|----------------------------2---|
|--------------------------------|------------------------0-------|
|--------------------------------|--------------------------------|

    
|--------------------------------|--------------------------0-1---|
|0-------------------------------|0---------------0-------0-------|
|--------3-------2-------0-2-4---|--------------------------------|
|--------------------------------|--------------------------------|

      
|2---------------2-------2---1---|0-------0-------0-------0-------|
|--------------------------------|--------------------------------|
|--------------------------------|--------------------------------|
|--------------------------------|--------------------------------|

      
|----------------0-------1-------|2-------------------------------|
|0-------------------------------|--------------------------------|
|--------------------------------|--------0-------0-------0-------|
|--------------------------------|--------------------------------|

      
|------------------------1-------|0---------------0---------------|
|0-------------------------------|--------------------------------|
|--------------------------------|--------------------------------|
|--------------------------------|--------------------------------|

       
|--------------------------------|----------------1---------------|
|0-------------------------------|0-------------------------------|
|--------3-------2-------0-2-4---|--------------------------------|
|--------------------------------|--------------------------------|

        
|0---------------1---------------|0---------------0---------------|
|--------------------------------|--------------------------------|
|--------------------------------|--------------------------------|
|--------------------------------|--------------------------------|

       
|--------------------------------|--------------------------0-1---|
|0-------------------------------|0---------------0-------0-------|
|--------3-------2-------0-2-4---|--------3-----------------------|
|--------------------------------|--------------------------------|

        
|2---------------2-----------1---|0-------0-------0-------0-------|
|------------2-----------2-------|--------------------------------|
|--------------------------------|--------------------------------|
|--------------------------------|--------------------------------|

     
|----------------0-------1-------|2-------------------------------|
|0-------4-----------------------|--------------------------------|
|--------------------------------|--------0-------0-------0-------|
|--------------------------------|--------------------------------|

    
|--------------------------------|0-------0-------0-------0-------|
|0---------------0-------0-------|--------------------------------|
|--------------------------------|--------------------------------|
|--------------------------------|--------------------------------|

       
|--------------------------------|----------------1-------1-------|
|0-------0-----------------------|0-------0-----------------------|
|----------------0-------4-------|--------------------------------|
|--------------------------------|--------------------------------|

     
|0---------------1---------------|0-------------------------------|
|--------------------------------|--------3-------2-------1-------|
|--------------------------------|--------------------------------|
|--------------------------------|--------------------------------|

       
|--------------------------------|--------------------------0-1---|
|0-------------------------------|0---------------0-------4-------|
|--------3-------2-------0-2-4---|--------2-----------------------|
|--------------------------------|--------------------------------|

       
|2---------------2---------------|0-------0-------0-------0-------|
|------------------------0-------|--------------------------------|
|--------------------------------|--------------------------------|
|--------------------------------|--------------------------------|
      
|----------------0-------1-------|2-------------------------------|
|0-------4-----------------------|--------------------------------|
|--------------------------------|--------0-------0-------0-------|
|--------------------------------|--------------------------------|

        
|--------------------------------|0-------------------------------|
|--------0-------0-------0-------|--------3-------2---------------|
|------------2-------2-----------|------------------------0-2-4---|
|--------------------------------|--------------------------------|

      
|--------------------------------|------------------------1-------|
|0-------0-------0---------------|0-------0-------0---------------|
|------------2-----------2---4---|------------2-------------------|
|--------------------------------|--------------------------------|

     
|0-------------------------------|--------------------------------|
|--------3---3---2-------0---4---|--------3---3---2---2---1---1---|
|--------------------------------|--------------------------------|
|--------------------------------|--------------------------------|

       
|--------------------------------|----------------------------1---|
|0---0---------------------------|0-----------------------4-------|
|--------3---3---2-------0-------|--------3---3---2---------------|
|--------------------------------|--------------------------------|

       
|2-------2-------2---------------|0-------------------------------|
|------------------------0---4---|--------------------------------|
|--------------------------------|--------------------------------|
|--------------------------------|--------------------------------|

      
|0-------------------------------|0-------------------------------|
|--------------------------------|--------------------------------|
|--------------------------------|--------------------------------|
|--------------------------------|--------------------------------|

       
|0-------------------------------|--------------------------------|
|--------------------------------|--------------------------------|
|--------------------------------|--------------------------------|
|--------------------------------|--------------------------------|

        
|--------------------------------|--------------------------------|
|--------------------------------|--------------------------------|
|--------------------------------|--------------------2-----------|
|--------------------------------|--------------------------------|

        
|--------------------------------|
|--------0-----------------------|
|--------------------------------|
|--------------------------------|





Comments


Popular B. B. King tabs & chords
The Thrill Is Gone Live Bass Tabs
Stand By Me Chords
You Dont Know Me Chords
Guess Who Tabs
Mean Old World Tabs
Stand By Me Intro Tabs
Sweet Little Angel How Blue Can You Get Tabs
The Blues Come Over Me Tabs
The Thrill Is Gone Live Tabs
Three Oclock Blues Tabs


Song lyrics



↑ Back to top | Tablatures and chords are parodies/interpretations of the original songs. You may use it for private study, scholarship, research or language learning purposes only
© 2014 AZChords.com Contact us | Privacy policy | DMCA | Add/correct tabs | Request tabs | Top 50 tabs