>
 >
Riding With The King

Riding With The King Guitar Tabs

B. B. King - Riding With The King chords, tabs, tablatures, lyrics

Guitar lessons | Add/correct | Request | Top 50 tabs Artists:  A B C D E F G H I J K L M N O P Q R S T U V W X Y Z 0-9

Riding With The King Guitar Tabs – B. B. King

CD, Sheet music, Poster

Do you like Riding With The King? Share with your friends now
Tabs
RIDING WITH THE KING
As recorded by Eric Clapton & B.B. King
(From the 2000 Album RIDING WITH THE KING)

Words & Music by John Hiatt

Gtr I (E A D G B E) - 'Eric Clapton light dist'
Gtr II (E A D G B E) - 'B.B. King clean w/sustain'
Gtr III (E A D G B E) - 'Rhythm w/light dist'

Intro
  Q=102
 4/4
  Gtr I
                                           ~~~
  E    W                   H       Q   a E E
|---||-----------------|-------------------9-|
|---||-----------------|---------------------|
|---||-----------------|---------------7s9---|
|---||-----------------|---------------------|
|---||-----------------|---------------------|
|---||-----------------|---------------------|
|
| Gtr III
|                                    ~
| E    q  e E a q  e E   a e E e E E Q     E
|---||-----------------|---------------------|
|---||-----------------|---------------------|
|---||-----------------|-------------2-------|
|---||-2--4---4s5--4---|-4s5---4---5---------|
|-0-||------0--------0-|-----0---0---------0-|
|---||-----------------|---------------------|


 ~~~~~~~~~~~~~~~~~~~~~~~~~~~
  +W                    +H        Q  a  E  E
|-(9)---------------|---(9)---------------11----||
|-------------------|---------------------------||
|-------------------|----------------9s11-------||
|-------------------|---------------------------||
|-------------------|---------------------------||
|-------------------|---------------------------||
|
|  q   e E a q  e E   a  e  E e E Q     E  e
|-------------------|---------------------------||
|-------------------|---------------------------||
|-------------------|----------------------4----||
|--2---4---4s5--4---|-4s=5----4---5--------4----||
|--------0--------0-|-------0---0-------0--2----||
|-------------------|---------------------------||


  Gtr I
    ~~~~
   +W                         W
|-(11)----------------------|---------------------------------|
|---------------------------|---------------------------------|
|---------------------------|---------------------------------|
|---------------------------|---------------------------------|
|---------------------------|---------------------------------|
|---------------------------|---------------------------------|
|
| Gtr II
|        ~~
|   Q    Q    E     E    Q    H       E  E      +E       +e
|---------------------------|-----------12b13==(12)b14==(12)r-|
|-------12---14b15-14b15----|--------15-----------------------|
|---------------------------|---------------------------------|
|---------------------------|---------------------------------|
|---------------------------|---------------------------------|
|---------------------------|---------------------------------|
|
| Gtr III
|  +Q    E E  Q          Q    E E Q   Q          E        E
|---------------------------|---------------------------------|
|---------------------------|-----4--------------4--------4---|
|--(4)--------2----------4--|---4-4---2----------4--------4---|
|--(4)---6-4--4----------4--|---4-4---4----------4--------4---|
|--(2)---2-2--2-------------|---2-2---2-----------------------|
|---------------------------|---------------------------------|


                                      ~~~~~
   W                          E    E  E    E a E  E     a   E   E
|--------------------------|-------------------------------------------||
|--------------------------|-------------------------------------------||
|--------------------------|--9b11-9--7--------------------------------||
|--------------------------|---------------9---------------------------||
|--------------------------|-----------------9s7--5-----7s==9---9------||
|--------------------------|-------------------------------------------||
|
|  ~~
|  H      E.      +S   q      Q       Q        E  E        +E   S  S
|--------------------------|---------14b16-----------------------------||
|-12-----14b15r==(14)------|---------------------14pb15r==(14)p12------||
|---------------------13---|--------------------------------------13---||
|--------------------------|-------------------------------------------||
|--------------------------|-------------------------------------------||
|--------------------------|-------------------------------------------||
|
|  Q  q   E    E       E e   +E    E  q        Q            E   E
|--------------------------|-------------------------------------------||
|-----4--------4-----------|-------------------------------------------||
|--2--4--------4---------2-|-(2)---2--2--------2------------2---2------||
|--4--4--------4---------4-|-(4)---4--4--------4------------4---4------||
|--2-----------2---------2-|-(2)---2--2-------------------------2------||
|--------------------------|-------------------------------------------||


 Verse 1
   Q   +Q    H          W                        W
|--------------------|-----------------------|------------------|
|--------------------|-----------------------|------------------|
|--------------------|-----------------------|------------------|
|--9---(9)\----------|-----------------------|------------------|
|--------------------|-----------------------|------------------|
|--------------------|-----------------------|------------------|
|
|  ~~~                                                ~~     ~~
|  W                    H      E  E  E  E       +q    Q  Q   Q
|--------------------|-----------------12b14r|=(12)-------------|
|-12-----------------|-----------12-15-------|-------12-----12--|
|--------------------|-----------------------|------------------|
|--------------------|-----------------------|------------------|
|--------------------|-----------------------|------------------|
|--------------------|-----------------------|------------------|
|
| +Q    q    E E E E   +Q   q  Q     E  E        Q    q  Q   q
|--------------------|-----------------------|------------------|
|-------4------4-----|------4--------4-------|--------4------4--|
|-(2)---4------4---4-|-(4)--4--------4-------|---2----4--2---4--|
|-(4)---4------4---4-|-(4)--4-----------4----|---4----4--4---4--|
|-(2)--------------2-|-(2)--------------2----|---2-----------2--|
|--------------------|-----------------------|------------------|
|-Rhy Fig 1

 2/4       4/4
  Gtr II
                                           ~~~
  W         E  E      +Q     +E    Q       E
|---------|----------------------------------|
|---------|---15b17==(15)---(15)r-15b16---12-|
|---------|----------------------------------|
|---------|----------------------------------|
|---------|----------------------------------|
|---------|----------------------------------|
|
| Gtr III
|                                          ~~~
| E E E E   Q          E  E   E    E    E  E
|---------|----------------------------------|
|---------|----------------------------------|
|-2-2-2-2-|----------------------------------|
|-4-4-4-4-|----------------------------------|
|-2-2-2-2-|------------4--2-------------2--5-|
|---------|-0----------0--0---3----4---------|


 ~~~~~~                                    ~~
   +E   E   Q   Q   e     E    E      +E   Q  H
|------------------------12-|-12pb14r(12)-------------|
|-(12)-14----------15b16----|-------------12----------|
|---------------------------|-------------------------|
|---------------------------|-------------------------|
|---------------------------|-------------------------|
|---------------------------|-------------------------|
|
|~~~~~~         ~
|  +E   E a E E Q   E     E    Q           q  E E Q
|---------------------------|-------------------------|
|---------------------------|--------------4----------|
|---------------------------|--2-----------4----4-2---|
|-------2-------------------|--4-----------4----4-4---|
|--(5)----2h4---2---4-----2-|-(2)---------------------|
|-------------0-------------|-------------------------|


                                  ~~~
  Q     E      +E   E   E      E  E
|------14pb17r(14)-12---------------|
|----------------------15b15.5---12-|
|-----------------------------------|
|-----------------------------------|
|-----------------------------------|
|-----------------------------------|
|
| q  a  E       E  +Q          E  E
|-----------------------------------|
|-4----------------------------4--x-|
|-4-------------2--(2)---------4--x-|
|-4--2h=4----------------------4--x-|
|-------2---------------------------|
|-----------------------------------|


                        2/4     4/4
 ~~~~~~
   +Q    +Q     H        W       W
|----------------------|-------|--------------------|
|-(12)--(12)\----------|-------|--------------------|
|----------------------|-------|--------------------|
|----------------------|-------|--------------------|
|----------------------|-------|--------------------|
|----------------------|-------|--------------------|
|
|   Q     E   E E Q.     Q  Q    Q  a Q  E E a E E
|----------------------|-------|--------------------|
|----------------------|-------|--------------------|
|---------------2-4----|-2--2--|----0h1-------------|
|---4-----4---6-4-4----|-4--4--|----0h2-------------|
|---2-----2------------|-2--2--|----0h2------2h4----|
|----------------------|-------|-0-------0-0-----0--|


  Gtr I
    W
|--------------------------------------|
|--------------------------------------|
|--------------------------------------|
|--------------------------------------|
|--------------------------------------|
|--------------------------------------|
|
| Gtr II
|                         ~~~        ~~~
|   E   E  E  E      +S   E.      E  E
|-----/19\---12pb14r(12)p10------------|
|--------------------------------10-12-|
|--------------------------------------|
|--------------------------------------|
|--------------------------------------|
|--------------------------------------|
|
| Gtr III
| a E   E  E  E       E      E a  E  E
|--------------------------------------|
|--------------------------------------|
|--------------------------------------|
|------------------------------------4-|
|-4s5------4----------2--------2h=4--2-|
|-------0-----4--------------4---------|


                                                Chorus
                                                 ~
    W                     H         Q    E  E    W
|-----------------------|---------------------||-7-------------|
|-----------------------|---------------------||---------------|
|-----------------------|------------------/7-||---------------|
|-----------------------|---------------------||---------------|
|-----------------------|---------------------||---------------|
|-----------------------|---------------------||---------------|
|
|~~~~~~
|  +Q     q       H       W                      W
|--------10b10.5--------|---------------------||---------------|
|-(12)------------------|---------------------||---------------|
|-----------------------|---------------------||---------------|
|-----------------------|---------------------||---------------|
|-----------------------|---------------------||---------------|
|-----------------------|---------------------||---------------|
|
|  +E  E  Q       Q  q    E E a Q  +E  E E  E    Q  q  E E E E
|-----------------------|---------------------||---------------|
|--------------------4--|-----5p4--(4)--------||---------------|
|------4--4-------4--4--|---4---4--(4)-2-2----||---------------|
|--(4)-4--4-------4--4--|---4---4--(4)-2-2----||---------------|
|--(2)------------2-----|-------2--(2)--------||-5--5--5-5-7---|
|-----------------------|-------------------3-||-3--3--3-3-3-3-|
                                end Rhy Fig 1-||-Rhy Fig 2

  +H          E E  E    E   +W
|-(7)---------7-6--5----4-|-(4)---------|
|-------------------------|-------------|
|-------------7-6--5----4-|-(4)---------|
|-------------------------|-------------|
|-------------------------|-------------|
|-------------------------|-------------|
|
|                            ~~~
|  Q    H          Q         H.      Q
|-------------------------|-------------|
|------15b17------15b16---|-12----------|
|-------------------------|-------------|
|-------------------------|-------------|
|-------------------------|-------------|
|-------------------------|-------------|
|
|  Q    Q     E E  E    E   +W
|-------------------------|-------------|
|-------------------------|-------------|
|-----------------------1-|-(1)---------|
|-------------5-4--3----2-|-(2)---------|
|--5----7-----5-4--3----2-|-(2)---------|
|--3----3-----3-2--1----0-|-(0)---------|


   H              E  E       E   E     W
|-----------------4----------4-------|-7----------------|
|------------------------------------|------------------|
|-----------------4--4----------/7---|-7----------------|
|------------------------------------|------------------|
|------------------------------------|------------------|
|------------------------------------|------------------|
|
|  E   Q.         E  Q          +E     H    E.  S  E  E
|----------------12------------------|------------------|
|-----15b15.5-------15b15.5====(15)r-|---------15s14-14-|
|------------------------------------|------------------|
|------------------------------------|------------------|
|------------------------------------|------------------|
|------------------------------------|------------------|
|
| +Q          Q   E  E       E   E     W
|------------------------------------|------------------|
|------------------------------------|------------------|
|-(1)--------------------------------|------------------|
|-(2)------------------------4---5---|-5----------------|
|-(2)------------------------4---5---|-5----------------|
|-(0)---------0---0--0-------2---3---|-3----------------|


                               ~~~~~~~~~~~~~~~~~~~~~~
  +Q        E  E E E E E   a E Q.       +H
|-(7)------------7---7---|-----9--------(9)---------|
|------------------------|--------------------------|
|-(7)----------7---7---7-|-7s9----------------------|
|------------------------|--------------------------|
|------------------------|--------------------------|
|------------------------|--------------------------|
|
|      ~~~~~~~~
|  S   E.  +H.               W
|------------------------|--------------------------|
|-----12--(12)-----------|--------------------------|
|-13---------------------|--------------------------|
|------------------------|--------------------------|
|------------------------|--------------------------|
|------------------------|--------------------------|
|
| +Q        q    E E E E     Q    E E a  E   E  E E
|-----------0------------|--------------------------|
|-----------0------------|--------------------------|
|-----------0------------|--------------------------|
|-(5)--------------------|---2----4---4s=5------4---|
|-(5)------------------0-|----------0-------(0)---0-|
|-(3)--------------3-3---|--------------------------|


 ~~~~~
  +W                        W
|-(9)---------------------|----------------|
|-------------------------|----------------|
|-------------------------|----------------|
|-------------------------|----------------|
|-------------------------|----------------|
|-------------------------|----------------|
|
|                               ~~
|  H       E  e  Q          Q   Q   H
|-------------------------|----------------|
|------------12-15b15.5---|----12----------|
|-------------------------|----------------|
|-------------------------|----------------|
|-------------------------|----------------|
|-------------------------|----------------|
|
|             ~~
|  q   E E E  Q         E   Q   E E Q  E E
|-------------------------|----------------|
|-------------------------|----------------|
|-------------2-----------|---------2----2-|
|--5---4---5--------------|-4---6---4--6-4-|
|--------0--------------0-|-2---2-2----2-2-|
|-------------------------|----------------|


  W                   W
|-------------------|-----------------|
|-------------------|-----------------|
|-------------------|-----------------|
|-------------------|-----------------|
|-------------------|-----------------|
|-------------------|-----------------|
|
|                 ~     ~
| H       E a Q   E   S E S Q  H
|-------------------|-----------------|
|-------------------|-----------------|
|-----------7h9---7-|-----------------|
|-------------------|---9-------------|
|-------------------|-----------------|
|-------------------|-----------------|
|
|                     PM-------|
| E E E E E   E E E   Q     Q  Q  E E
|-------------------|-----------------|
|-----5-4-----------|-----------------|
|---4-4-4-------4---|-----------------|
|-4-4-4-4-4-----4---|-------2--2----2-|
|-2-2-----2---2---2-|-------4--5--5-0-|
|-------------------|-0-----0--0--0---|


                                  Verse 2
              ~~                   ~
  a a  E   E  E  E  a E E   E E    Q  Q      H
|-------------------------------||--------------------|
|-----10-----10-12--------------||--------------------|
|---x-----11-------11s9-7b8-----||----7b7.5-----------|
|-x-------------------------9-9-||-9------------------|
|-------------------------------||--------------------|
|-------------------------------||--------------------|
|
|      W                           W
|-------------------------------||--------------------|
|-------------------------------||--------------------|
|-------------------------------||--------------------|
|-------------------------------||--------------------|
|-------------------------------||--------------------|
|-------------------------------||--------------------|
|
|     +E   E  E  E    E E   E E
|-------------------------------||
|-------------------------------||
|-----------------------------4-|| w/Rhy Fig 1
|-----(2)-----4--2----2-2-----4-||
|-----(0)--0-----0----0-0-----2-||
|-------------------------------||
                  end Rhy Fig 2-|

   H                      E      E    S S E
|-------------------------------------------|
|-------------------------------------------|
|--------------------------------9b11-9p7---|
|-----------------------------------------9-|
|-------------------------------------------|
|-------------------------------------------|
|
|  E   E     +E   E      +S   S  Q.
|-----12b14r(12)-12pb14r(12)-10-------------|
|-------------------------------12----------|
|-------------------------------------------|
|-------------------------------------------|
|-------------------------------------------|
|-------------------------------------------|



                          2/4                 4/4
             ~~                                          ~         ~~
  E    +E    Q  +Q    Q    E S S  E       E    Q  a  E E Q   a  E  E
|------------------------|-------------------|------------------------|
|-7----(7)---------------|-------------------|------------------------|
|-7b8==(7)r--------------|--------7----------|-----------7---7h=9--7--|
|------------9--(9)\-----|---7h9-------------|---------9--------------|
|------------------------|-------------------|-7--9s11----------------|
|------------------------|----------------0--|------------------------|
|
|            ~~
| Q          Q   H         Q      E      +E    Q     q   Q      E  E
|------------------------|-------------------|-----------------12-----|
|-----------12-----------|-------15pb17r(15)-|------15------------15--|
|------------------------|-------------------|------------------------|
|------------------------|-------------------|------------------------|
|------------------------|-------------------|------------------------|
|------------------------|-------------------|------------------------|



   ~~~
  +E     e    Q     H              W
|-------------------------------|-------------------------------------|
|-------------------------------|-------------------------------------|
|-(7)---------------------------|-------------------------------------|
|--------9----------------------|-------------------------------------|
|-------------------------------|-------------------------------------|
|-------------------------------|-------------------------------------|
|
|                   ~~
|  S   S E    E  E  Q   S  E.      E     +E       +Q     Q   E  E
|----------------------14-------|-------------------------------------|
|-----14-----14-12-12-----12----|-15b16r(15)b16==(15)r/--------15b17==|
|-------------------------------|-------------------------------------|
|-------------------------------|-------------------------------------|
|-------------------------------|-------------------------------------|
|-------------------------------|-------------------------------------|



                      ~~~~            ~
    Q         E   E   Q    a  S S E   Q  Q   H
|-----------------------------------|---------------|
|--------------------10-------------|---------------|
|---------------/11-------11s=9p7---|-7-------------|
|---------------------------------9-|----9----------|
|-----------------------------------|---------------|
|-----------------------------------|---------------|
|
|        ~~~~~~~~~~~~~~~~
|  +E    Q.          +Q       q       W
|-----------------------------------|---------------|
|-(15)r-12----------(12)------------|---------------|
|----------------------------13-----|---------------|
|-----------------------------------|---------------|
|-----------------------------------|---------------|
|-----------------------------------|---------------|



 2/4       4/4
  Q  E  E   Q  a  E E E E      E E
|---------|------------------------|
|---------|------------------------|
|----7\---|-------------9b11---9p7-|
|----7\---|---------9--------------|
|---------|-7--9s11----------------|
|-------0-|------------------------|
|
| Q  Q      Q  a  Q   E E    a E E
|---------|------------------------|
|---------|------------------------|
|-2--2----|----0h=1----------------|
|-4--4----|----0h=2----------------|
|-2--2----|----0h=2----------2h4---|
|---------|-0---------0-0--------0-|


                                 ~~~~~~~~             ~~~
     E E    E E  a E E       S S E   +Q    E    E E   Q    e
|------------------7---------------|--------------7----------|
|---10-------------7-7-------------|------------7---/12---12-|
|------9b11-9-7-10s9-7b7.5---------|-------9b11--------------|
|----------------------------9p7-9-|-(9)---------------------|
|----------------------------------|-------------------------|
|----------------------------------|-------------------------|



                                                      Chorus
  Gtr I
                                ~~~                 |-w/Rhy Fig 2
   E  E       E           E     Q           E     E    W
|-12-12b14---10b10.5-----------10-------------------||-7-------------|
|------------------------12----------------12\------||---------------|
|------------------------------------------------/7-||---------------|
|---------------------------------------------------||---------------|
|---------------------------------------------------||---------------|
|---------------------------------------------------||---------------|
|
| Gtr II
|                               |---3----|
|  Q          E      a a  E     E   E    E  q          W
|------------------------14b17-----14---12----------||---------------|
|----------------------x-------------------15b16----||---------------|
|--------------------x------------------------------||---------------|
|---------------------------------------------------||---------------|
|---------------------------------------------------||---------------|
|---------------------------------------------------||---------------|



  +H                  E E E E   +W
|-(7)-----------------7-6-5-4-|-(4)--------------------|
|-----------------------------|------------------------|
|---------------------7-6-5-4-|-(4)--------------------|
|-----------------------------|------------------------|
|-----------------------------|------------------------|
|-----------------------------|------------------------|
|
|                                                    ~~
|  Q    S      +S   E H          H       E  E     E  E
|-----------------------------|------------------------|
|------14pb15r(14)p12---------|------------14b15-14-12-|
|-----------------------------|--------/13-------------|
|-----------------------------|------------------------|
|-----------------------------|------------------------|
|-----------------------------|------------------------|


   +Q       Q  Q    E E   +W
|--(4)----------------7-|-(7)--------|
|-----------------------|------------|
|--(4)-------------/7---|------------|
|-----------------------|------------|
|-----------------------|------------|
|-----------------------|------------|
|
|   ~~~~
|  +S   S E Q  H           W
|-----------------------|------------|
|-(12)-14---------------|------------|
|-----------------------|------------|
|-----------------------|------------|
|-----------------------|------------|
|-----------------------|------------|



  +Q.     E E E E S S   W
|-(7)-------7---7-----|-9-------------------|
|---------------------|---------------------|
|--------/7---7---7s9-|---------------------|
|---------------------|---------------------|
|---------------------|---------------------|
|---------------------|---------------------|
|
|  W                    W
|---------------------|---------------------|
|---------------------|---------------------|
|---------------------|---------------------|
|---------------------|---------------------|
|---------------------|---------------------|
|---------------------|---------------------|



  +H       H        Q   H              Q
|-(9)-------------|----12b14----------12b14=======|
|-----------------|-------------------------------|
|-----------------|-------------------------------|
|-----------------|-------------------------------|
|-----------------|-------------------------------|
|-----------------|-------------------------------|
|
|  W                H          E S  S  E     E
|-----------------|--------------7----------------|
|-----------------|----------------10-------------|
|-----------------|--------------------------7b8==|
|-----------------|-------------------------------|
|-----------------|-------------------------------|
|-----------------|-------------------------------|



                                      ~~~~~~~~~~~~~
   +Q          Q       E      +E   E  E    +Q    Q   E      +E    q
|-(12)r-------12b14---12pb14r(12)-10----|-----------10b11==(10)r-10b11--------|
|------------------------------------12-|-(12)--12----------------------------|
|---------------------------------------|-------------------------------------|
|---------------------------------------|-------------------------------------|
|---------------------------------------|-------------------------------------|
|---------------------------------------|-------------------------------------|
|
|                                  ~~~~~~~~~~~~
|       |-3-|
|  +E   S S S  Q       E       E   Q       +Q    Q   E       e    e    E
|---------------------12----------------|-------------------------------------|
|-----------------------------15--12----|-(12)--------------------------------|
|--(7)r---------------------------------|--------------------7----9----9b11===|
|-------9p7-----------------------------|-------------------------------------|
|-----------9---------------------------|-------------------------------------|
|---------------------------------------|-------------------------------------|



   E           +E    E    E  E      +S   +S   E  E
|-12b14=======(12)r-12---10-12b14==(12)r(12)p10----|
|-----------------------------------------------12-|
|--------------------------------------------------|
|--------------------------------------------------|
|--------------------------------------------------|
|--------------------------------------------------|
|
|  |--3--|
| +E     Q          +E    E  H
|--------------------------------------------------|
|--------------------------------------------------|
|-(9)r---7b8========(7)r--7------------------------|
|--------------------------------------------------|
|--------------------------------------------------|
|--------------------------------------------------|
|
| +E            E    E    E  E       E        E  E
|--------------------------------------------------|
|--------------------------------------------------|
|------------------------------------------------4-|
|-(2)----------------4----2--2-------2-----------4-|
|-(0)-----------0---------0--0-------0-----------2-|
|--------------------------------------------------|

                                             ~~~~~~~~~~~
   +Q    Q          +E      +E      E       E
|-------12b14======(12)r===(12)----10b10.5-------|
|-(12)-------------------------------------12----|
|------------------------------------------------|
|------------------------------------------------|
|------------------------------------------------|
|------------------------------------------------|
|
|             |-----3-----|
| Q    E     +E   +E   E       E  E       E
|------------------------7-----------------------|
|-------------------------------10---------------|
|--------9b11==(9)--(9)r--------------------7b8==|
|------------------------------------------------|
|------------------------------------------------|
|------------------------------------------------|
|
| +Q    E      E    Q              E       E
|------------------------------------------------|
|------------------------------------------------|
|--(4)---------------2----------------------2----|
|--(4)---6-----------4--------------6-------4----|
|--(2)---5------5-------------------2-------2----|
|------------------------------------------------|


 ~~~~~~~                     ~~~~~~~~~~
   +Q          q    E  E  E  E    +Q     E  E  q             E    E
|------------------------------|-----------(0)------------------------|
|-(12)--------10---10----10-12-|-(12)\------0--7----------------------|
|---------------------11-------|--------/4-----7b7.5---------9b11-9---|
|------------------------------|--------------------------------------|
|------------------------------|--------------------------------------|
|------------------------------|--------------------------------------|
|
|                                  ~~~~~
|       |-3-|
|  +E   S S S  E E  E  E  q        Q     q     E     E      +Q
|------------------------------|--------------------------------------|
|------------------10-12-12----|--12----10-----9----------------------|
|--(7)r------------------------|---------------9-----7b8====(7)r------|
|-------9p7----7-9-------------|--------------------------------------|
|-----------9------------------|--------------------------------------|
|------------------------------|--------------------------------------|
|
|   Q          E E  E  E  E  E     Q     Q     E     E    a  E    E
|------------------------------|---------0-----0-----0----------------|
|------------------------------|---------3-----3-----3----------------|
|--------------2---------------|---------1-----1-----1----------------|
|---4----------4-4--4--------2-|---------2-----2-----2----------------|
|---2------------2--2--2--0--2-|---------2-----2-----2----0h=2----0---|
|------------------------------|---0----------------------------------|


                                 Bridge
  a S S  E  E    S S E E E a E     Q   Q    H
|------------------------------||------------------|
|-----------7------------------||------------------|
|-7h9p7-----7----------7-9-----||--7---7\----------|
|--------9-------9s6s9---------||--7---7\----------|
|--------------------------7h9-||-(9)--9\----------|
|------------------------------||------------------|
|
|   E    E  q        H             W
|-------10-10b11---------------||------------------|
|------------------------------||------------------|
|------------------------------||------------------|
|------------------------------||------------------|
|------------------------------||------------------|
|------------------------------||------------------|
|
|   E    E  E    E   E E E a E     Q   E  E Q  E E
|------------------------------||------------------|
|------------------------------||-----------7------|
|--------------------2---------||--7--------7------|
|---2----2--4--------2---2-----||--7---9--7-7--9-7-|
|---0----0--0----0-----0-0-0h5-||--5---5--5-8--5-5-|
|------------------------------||------------------|


                                              ~~
  E     E  Q      E    +E  E     E    E    E  Q    E   E    E E
|----------------------------------|--------------(7)-------7---|
|----------------------------------|-----/12-12----7--10b12-7-7-|
|-9b11==9r-9b11---9b11r(9)-7b7.5---|----------------------------|
|--------------------------------9-|--0-------------------------|
|----------------------------------|----------------------------|
|----------------------------------|----------------------------|
|
| W                                   W
|----------------------------------|----------------------------|
|----------------------------------|----------------------------|
|----------------------------------|----------------------------|
|----------------------------------|----------------------------|
|----------------------------------|----------------------------|
|----------------------------------|----------------------------|
|
| Q        E    E E     E  E     E   +E    E  E E  Q        E E
|----------------------------------|----------------------------|
|-7--------------------------------|----------------------------|
|-7------------------------------4-|-(4)-----------4------------|
|-7--------9----7----------------4-|-(4)---4--6----4--------6-4-|
|-5--------5----5-------0--2-----2-|-(2)---2--2-2-----------2-2-|
|----------------------------------|----------------------------|


                                        ~~
  S    S E E E a E E    E E   a  E  E   Q    H
|---------------------------|------------------------|
|----------------7----------|------------------------|
|-9b11-9p7-----7h9-7------7-|-7h=9--7---7\-----------|
|----------9------------9---|------------------------|
|------------9--------------|------------------------|
|---------------------------|------------------------|
|
|                         ~~~~~~~~~~
| H              E E    E E     +E  S S Q    H
|---------------------------|------------------------|
|---------------------------|------------------------|
|------------------9b11-9-7-|---(7)------------------|
|---------------------------|-------9p7--------------|
|---------------------------|------------------------|
|---------------------------|------------------------|
|
| Q        E E   E E    E E      Q      E  E E E E E
|---------------------------|------------------------|
|---------------------------|------------------------|
|-4--------------4-4--------|----7-----------7-----7-|
|-4--------6-4---4-4----6-4-|----7-----------7---9-7-|
|-2--------2-2---2-2----2-2-|----5---------5---5-5-5-|
|---------------------------|------------------------|


                          ~~~
   W                 Q    Q    E      +E   E  E
|------------------|----------10b11==(10)r---12b14-|
|------------------|----/12------------------------|
|------------------|-------------------------------|
|------------------|-------------------------------|
|------------------|-------------------------------|
|------------------|-------------------------------|
|
|  W                 W
|------------------|-------------------------------|
|------------------|-------------------------------|
|------------------|-------------------------------|
|------------------|-------------------------------|
|------------------|-------------------------------|
|------------------|-------------------------------|
|
| +E  E E E Q  E E   Q    E E  E       Q      E
|------------------|-------------------------------|
|------------------|-------------------------------|
|-(7)-------7------|------4----4-------4-----------|
|-(7)-7-9-7-7----4-|-4----4----4-------4-----------|
|-(5)---5-5-5--0-2-|-2------2----------------------|
|------------------|--------------------------7----|


  Gtr I
   E  E  E      +E    a  Q         E  E
|-12-10-12b14==(12)r----10b10.5---------|
|--------------------10-----------12\---|
|-------------------------------------2s|
|---------------------------------------|
|---------------------------------------|
|---------------------------------------|
|
| Gtr III
|  E  Q          E       E      E  E  E
|---------------------------------------|
|---------------------------------------|
|---------------------------------------|
|---------------------------------------|
|--5--5------------------9------8--8--6-|
|----------------7-------7------6--5--4-|


                  ~
  Q  E E H        Q  H       E E   W
|----7---7------|-7--7-------7s9-|-9---------------|
|---------------|----------------|-----------------|
|-7----7--------|-7--7-------7s9-|-9---------------|
|---------------|----------------|-----------------|
|---------------|----------------|-----------------|
|---------------|----------------|-----------------|
|
| Q  E E Q  E E   Q  E E E E E E   Q  E E E E E E
|---------------|----------------|-----------------|
|---------------|----------------|-----------------|
|---------------|----------------|-2---------------|
|---------------|----------------|-2--4---5---4----|
|-5--5-5-5--5-5-|-5----5-5-5-5-0-|-0----0---0---0--|
|-3--3-3-3--3-3-|-3----3-3-3-3---|-----------------|


                       Breakdown
  Gtr I
  +H.           Q        Q   Q       Q.    E
|-(9)-----------x\---||----------------------|
|---------------x\---||------7---------------|
|-(9)-----------x\---||------7b7.5-----------|
|--------------------||--------------9-----9-|
|--------------------||----------------------|
|--------------------||----------------------|
|
| Gtr II
|  W                     W
|--------------------||----------------------|
|--------------------||----------------------|
|--------------------||----------------------|
|--------------------||----------------------|
|--------------------||----------------------|
|--------------------||----------------------|
|
| Gtr III
|             ~
|  E  E E E E Q    E    +Q   E     E Q   E E
|--------------------||----------------------|
|--------------------||----------------------|
|-------------2------||--------------2-------|
|--5----4---5------4-||-(4)--6-------4---6-4-|
|-----0---0--------2-||-(2)--2-----2-----2-2-|
|--------------------||----------------------|


                                   ~
  +Q          E E  a  E  E  E  E   Q  Q    H
|--------------------------------|-----------------------|
|--------------------------------|-----------------------|
|--------------------------------|-----------------------|
|-(9)---------9-7----------------|-----------------------|
|------------------9s=7--5-----5-|-7---------------------|
|---------------------------7----|-----------------------|
|
|  E   Q        E  a  E  E  E  E   H       E  Q.
|-----10b10.5-----13s12p10-12p10-|-----------------------|
|--------------------------------|-----------------------|
|--------------------------------|------------9b11-------|
|--------------------------------|-----------------------|
|--------------------------------|-----------------------|
|--------------------------------|-----------------------|
|
| +H                  E  E  E  E   Q  E E +Q       a E E
|--------------------------------|-----------------------|
|--------------------------------|------0-(0)------------|
|---------------------------2--4-|----1------------------|
|-(4)-----------------2--4-------|----2------------------|
|-(2)----------------------------|----2------------0h2p0-|
|--------------------------------|-0---------------------|


   Q       E     E   a  E    E       E       E     H         H
|----------------------------------------------|-------------------------|
|----------------------------------------------|-------------------------|
|--------------------------------------------7-|-------------------------|
|----------------------------7-------9---------|---7tr9------7tr9--------|
|----------5-----7---7s=9----------------------|-------------------------|
|----------------------------------------------|-------------------------|
|
|                                            ~~~~~~~~~~~
|  S   S e E    +E      E.      +S   E       E    +Q.      E H
|--7-------------------12b14r==(12)-10b10.5----|-------------------------|
|-----10p7----------------------------------12-|-(12)--------------------|
|----------7b8==(7)r---------------------------|-------------------------|
|----------------------------------------------|-------------------------|
|----------------------------------------------|-------------------------|
|----------------------------------------------|-------------------------|
|
| +E     E e     E      Q            q             Q     q   Q     E a E
|----------------------------------------------|-------------------------|
|----------------------------------------------|---------4---------9-7---|
|----------7-----------------------------------|---------4---------9-7h8-|
|----------7-------------------------2---------|---4-----4---4-----9-----|
|-(0)----0-------0------0------------0---------|---2---------2-----------|
|----------------------------------------------|-------------------------|


  H                 Q        Q             Q.     a E  E  E E E
|--------------------------------------|--------------------------|
|--------------------------------------|--------------------------|
|--------------------------------------|--------------------7-----|
|--------------------------------------|--------------------7-----|
|-7tr9--------------5tr7-----5b5.5-----|----------7s9--9--9---9---|
|--------------------------------------|---0----------------------|
|
| H              a  E     E  Q            +Q    Q      H
|---------------13s12-------10b10.5====|=(10)r--------------------|
|------------------------12------------|--------------------------|
|--------------------------------------|--------------------------|
|--------------------------------------|--------------------------|
|--------------------------------------|--------------------------|
|--------------------------------------|--------------------------|
|
| Q     a E  E      E     E  E       E     Q    Q     +E  E e E
|--------------------------------------|--------------------------|
|--------------------------------------|--------0-----(0)---3-----|
|-------7h9-(7)------------------------|--------1-----(1)---1-----|
|-------7h9-(7)--------------7h======9-|--------2-----(2)---2-----|
|-------------------7h====9------------|--------2-----(2)-----0---|
|-7------------------------------------|---0--------------0-------|


                              Outro
                                                ~~
    E  E  E  E  E  E  E  E     Q   E.      +S   Q    E  E
|---------------------------||----12b14r==(12)------------|
|-/10-10-10-10-10-10-10-10/-||-----------------12---10-12-|
|-/11-11-11-11-11-11-11-11/-||----------------------------|
|---------------------------||----------------------------|
|---------------------------||----------------------------|
|---------------------------||----------------------------|
|
|                                  ~~~~~~~
|   W                          Q   H.
|---------------------------||----------------------------|
|---------------------------||----12pb14==================|
|---------------------------||----------------------------|
|---------------------------||----------------------------|
|---------------------------||----------------------------|
|---------------------------||----------------------------|
|
|   E  E  E  E  E  E  E  E     Q   q            E E  E  E
|---------------------------||----------------------------|
|---------------------------||----------------------------|
|---------------------------||--------------------------4-|
|---2--2--2--2--2--2--2-----||-4---6--------------4--6--4-|
|---0--0--0--0--0--0--0-----||-2---2--------------2--2--2-|
|------------------------0--||----------------------------|
                             |-Rhy Fig 3

                      ~~~~~~~                         ~~~
    E       Q         E  +Q     Q      Q   E     +E   Q     E  E
|--10b10.5-10b10.5-------------------|----12b14r(12)-------------|
|--------------------12-(12)---10\---|---------------12----10-12-|
|------------------------------------|---------------------------|
|------------------------------------|---------------------------|
|------------------------------------|---------------------------|
|------------------------------------|---------------------------|
|
|  +E       E      Q      H            W
|------------------------------------|---------------------------|
|-(12)r\-----------------------------|---------------------------|
|------------------------------------|---------------------------|
|------------------------------------|---------------------------|
|------------------------------------|---------------------------|
|------------------------------------|---------------------------|
|
|  +Q              q      E  E  E  E   Q   Q         +E  E  E  E
|------------------------------------|-----0---------(0)----0----|
|------------------------------------|-----0---------(0)----0----|
|--(4)--------------------------2--4-|-----1---------(1)----1----|
|--(4)-------------6------2--4-------|-----2---------(2)----2----|
|--(2)-------------2-----------------|-----2---------(2)----2----|
|------------------------------------|-0-------------------------|


                                ~~~~~~~~~~                       ~~~~~~
   E     +E   E  E     E     E  Q       Q   Q       +E   +E   E  E
|-12b14r(12)-10-------12b14-12-10----|-----12b14===(12)r(12)-10-------|
|---------------12-------------------|-12-----------------------12----|
|------------------------------------|--------------------------------|
|------------------------------------|--------------------------------|
|------------------------------------|--------------------------------|
|------------------------------------|--------------------------------|
|
|                                           ~~~~~~~~~~~~~
|  E      E   E  E     E     E  E  E    Q   Q       +q        E  E
|-------/10\-------------------------|--------------------------------|
|---------------14b15-------14----12-|-----12------(12)---------------|
|------------------------------------|------------------------9--7b8==|
|------------------------------------|--------------------------------|
|------------------------------------|--------------------------------|
|------------------------------------|--------------------------------|
|
|  E      E   E  E     E     E  E  E
|------------------------------------|
|------------------------------------|
|--2------2---2--2-----2-----2--2--2-| w/Rhy Fig 3 to end
|--2------2---2--2-----2-----2--2--2-|
|--0------0---0--0-----0-----0--0--0-|
|------------------------------------|
                       end Rhy Fig 3-|

 ~~~~~~~                    ~~~~~~~~~
   +Q        E  E  e  e  e  E    +Q    E          +E       +E      +E    E      +E
|-----------------------------|-------12b14r=====(12)b14==(12)----(12)r-12b14==(12)r--|
|-(12)------10----10-10-12-12-|-(12)--------------------------------------------------|
|--------------11-------------|-------------------------------------------------------|
|-----------------------------|-------------------------------------------------------|
|-----------------------------|-------------------------------------------------------|
|-----------------------------|-------------------------------------------------------|
|
|  +E   S S  Q     E  E  E  E     Q    S     +S    e        S   S   E    q
|-----------------------------|-------12b14r(12)--10-------12p=10---------------------|
|-----------------------12-12-|------------------------------------12---12------------|
|--(7)r--------------11-------|-------------------------------------------------------|
|-------7h9--9----------------|-------------------------------------------------------|
|-----------------------------|-------------------------------------------------------|
|-----------------------------|-------------------------------------------------------|



   Q       E  E      +E       +E           E  E       Q         H               E  E
|-12b14---10-12b13==(12)b14==(12)r--------10----|--------------14b17-----------14-12-|
|--------------------------------------------12-|------------------------------------|
|-----------------------------------------------|------------------------------------|
|-----------------------------------------------|------------------------------------|
|-----------------------------------------------|------------------------------------|
|-----------------------------------------------|------------------------------------|
|
|                                                                         ~~~~~~~~~~~~
|                              |---3---|              |3-|
|  Q       E  E       E        E      +S   Q       a  E  S  E   E     E  +Q     Q
|---------10-12b14---12-------12pb14r(12)p10----|-10h12-10---------------------------|
|-----------------------------------------------|----------12\-------12-(12)---12----|
|-----------------------------------------------|------------------------------------|
|-----------------------------------------------|------------------------------------|
|-----------------------------------------------|------------------------------------|
|-----------------------------------------------|------------------------------------|



                                                      ~~~~~~~~~~~~~~~
    E      +E   E  S   S   E       E  E    a  E       E  E  E  E  E  E  E  E
|-----------------------------------------------|----------------------------|
|--15b16==(15)r---------------------------------|----10-10-10-10-10-------12-|
|-----------------/7s(14)--x-------7--9----9s11-|-------11-11-11-11s=4/------|
|--------------------------x--------------------|----------------------------|
|-----------------------------------------------|----------------------------|
|-----------------------------------------------|----------------------------|
|
|~~~~~~~~~
|  +Q           E  E       E       E  Q            a  q     Q     H
|-------------------------10b10.5-12-10b11------|----------------------------|
|-(12)\-----------12----------------------------|-12p10----------------------|
|-----------------------------------------------|----------------------------|
|-----------------------------------------------|----------------------------|
|-----------------------------------------------|----------------------------|
|-----------------------------------------------|----------------------------|



   E       E     E     S     +S   E  a  E  E      E        +Q     Q       +E    Q.
|--7-------------7----------------7-------10-----12b14==|=(12)r--12b14===(12)r-12b14-----|
|---------10b12-------10b12r(10)----10s12---------------|--------------------------------|
|-------------------------------------------------------|--------------------------------|
|-------------------------------------------------------|--------------------------------|
|-------------------------------------------------------|--------------------------------|
|-------------------------------------------------------|--------------------------------|
|
|  E       E     E     E          E     E  E     +E         q     Q        H
|-10b10.5-12----12b13-10---------12p===10-10b11r(10)----|--------------------------------|
|-------------------------------------------------------|--12----------------------------|
|-------------------------------------------------------|--------------------------------|
|-------------------------------------------------------|--------------------------------|
|-------------------------------------------------------|--------------------------------|
|-------------------------------------------------------|--------------------------------|



   a       +E       +E    Q             Q       a       +E       +E
|-12pb13==(12)b14==(12)r-12b14---------12b14---12pb13==(12)b14==(12)r-|
|---------------------------------------------------------------------|
|---------------------------------------------------------------------|
|---------------------------------------------------------------------|
|---------------------------------------------------------------------|
|---------------------------------------------------------------------|
|
|
|           Q             E     E      +q                Q
|---------------------------------------------------------------------|
|------------------------------15b17==(15)r---------------------------|
|---------------------------------------------------------------------|
|---------------------------------------------------------------------|
|---------------------------------------------------------------------|
|---------------------------------------------------------------------|


   a         +E       +E    a       +E       +E     E      +E    E      +E
|-12pb12.5==(12)b14==(12)r-12pb13==(12)b14==(12)r--12b14==(12)r-12b14==(12)r-|
|----------------------------------------------------------------------------|
|----------------------------------------------------------------------------|
|----------------------------------------------------------------------------|
|----------------------------------------------------------------------------|
|----------------------------------------------------------------------------|
|
|                                              ~~~~~~~~~~~~
|             E        E    a        e        E    +E       E    Q
|----------------------------------------------------------------------------|
|------------14b15----14---12h======14-------12---(12)-----14----------------|
|----------------------------------------------------------------------------|
|----------------------------------------------------------------------------|
|----------------------------------------------------------------------------|
|----------------------------------------------------------------------------|


                                         ~~~~~~                          ~~~~~~~~~~~~~~~
   E  e      E     E      E  E           Q           E      +E           Q    Q       Q
|-12-10------------------12-10b11----------------|--10b11==(10)r--------------------------|
|-----------12----12--------------------12-------|----------------------12---12------12---|
|------------------------------------------------|----------------------------------------|
|------------------------------------------------|----------------------------------------|
|------------------------------------------------|----------------------------------------|
|------------------------------------------------|----------------------------------------|
|
|                                                                        ~~~~~~~~~~~~
|  E  E      E     E      E  S      +S   Q          +E.           S      Q   +E   Q.
|------------------------------------------------|----------------------------------------|
|-15-15pb17-15b16-15pb17-15-15pb17r(15)-15b17====|=(15)r---------15pb16-12--(12)-12-------|
|------------------------------------------------|----------------------------------------|
|------------------------------------------------|----------------------------------------|
|------------------------------------------------|----------------------------------------|
|------------------------------------------------|----------------------------------------|



                                   ~~~~~~~~~~~~~
   Q.        +E    E      +E    E  E    +E       E  e     E      e   e  E      +E
|-12b14=====(12)r-10b11==(10)r-------|-------------10b11-12b14--12--10-12b14==(12)r-|
|------------------------------12-12-|-(12)-----12----------------------------------|
|------------------------------------|----------------------------------------------|
|------------------------------------|----------------------------------------------|
|------------------------------------|----------------------------------------------|
|------------------------------------|----------------------------------------------|
|
|                                                         ~~~~~~~~~~
|  W                                     q          e     E     +Q      Q
|------------------------------------|----------------------------------------------|
|------------------------------------|--15b15.5----12----12----(12)-----------------|
|------------------------------------|----------------------------------------------|
|------------------------------------|----------------------------------------------|
|------------------------------------|----------------------------------------------|
|------------------------------------|----------------------------------------------|



   ~~                                        ~~~~~~~~~~~~
   Q    E  E  E     E  Q           +E   +E   Q   +E.        +S    E       E
|-12---10----10b11-12-12b14=====|=(12)r(12)-------------------------------------|
|---------12--------------------|-----------12--(12)-------(12)\---------12b15==|
|-------------------------------|-----------------------------------------------|
|-------------------------------|-----------------------------------------------|
|-------------------------------|-----------------------------------------------|
|-------------------------------|-----------------------------------------------|
|
|                      ~~~~~~                ~~
|  H          E     E  E      e     q        Q    Q               E       E
|-------------------------------|-----------------------------------------------|
|------------14b15-14-12--------|--12-------12---15b15.5---------15b15.5-12-----|
|----------------------------13-|-----------------------------------------------|
|-------------------------------|-----------------------------------------------|
|-------------------------------|-----------------------------------------------|
|-------------------------------|-----------------------------------------------|



                                ~~~~
   +E    E  e      e      E    +E    E    e
|-----------------------------------------7--|
|-(12)r\----------------------------------7--|
|--------9--9b9.5--9b9.5--7b8==(7)r----------|
|------------------------------------9-------|
|--------------------------------------------|
|--------------------------------------------|
|
|   Q       E      E      Q          q
|----------12--------------------------------|
|-----------------15-----15b17------15b16----|
|--------------------------------------------|
|--------------------------------------------|
|--------------------------------------------|
|--------------------------------------------|



   E    E  E     E     E   E  S     +S   E
|-------7--7-----------7---7-------------7---------|
|-10b12---------10b12--------10b12r(10)--7---------|
|--------------------------------------------------|
|--------------------------------------------------|
|--------------------------------------------------|
|--------------------------------------------------|
|
|  ~~~~~
|  Q       S  S  E     E   E  E          S     +S
|--------------------------------------------------|
|-12---------12-12----------------------14b16r(14)-|
|---------13----------13---------------------------|
|-------------------------14-----------------------|
|--------------------------------------------------|
|--------------------------------------------------|

               |---3----|
   a      +E   E  E    E   E  E    E  E      +E
|--------------7-------7---7-------7-10b11==(10)r-|
|-10pb12r(10)--7-10b12-------10b12----------------|
|-------------------------------------------------|
|-------------------------------------------------|
|-------------------------------------------------|
|-------------------------------------------------|
|
|
|          E   E  Q           H
|-------------------------------------------------|
|---------12-----14-------------------------------|
|-------------13----------------------------------|
|-------------------------------------------------|
|-------------------------------------------------|
|-------------------------------------------------|


  Q   E  E       +Q     +Q       +E   E  E  E  a  E     E   S  S E
|-----------------------------|------------------------------------|
|----10-10pb12==(10)---(10)r==|=(10)-10-10-10----------------------|
|-----------------------------|------11-11-11-11s=9-----7----------|
|-----------------------------|-----------------------------9p=7-9-|
|-----------------------------|------------------------------------|
|-----------------------------|------------------------------------|
|
|                    ~                               ~~~~~~~~~~
| H               E  Q      E     Q      E  E     S  E.    +Q
|-----------------------------|------------19----17s19----(19)-----|
|-----------------------------|------------------------------------|
|--------------------7--------|------------------------------------|
|-----------------------------|------------------------------------|
|-----------------------------|------------------------------------|
|--------





Comments


Popular B. B. King tabs & chords
To Know You Is To Love You Bass Tabs
Help The Poor Chords
Come Rain Or Come Shine Intro Tabs
Easy Blues Riff Intro Tabs
How Blue Can You Get Tabs
Mean Old World Tabs
Stand By Me Tabs
Stand By Me Intro Tabs
Ten Long Years Tabs
Three Oclock Blues Tabs


Song lyrics



↑ Back to top | Tablatures and chords are parodies/interpretations of the original songs. You may use it for private study, scholarship, research or language learning purposes only
© 2014 AZChords.com Contact us | Privacy policy | DMCA | Add/correct tabs | Request tabs | Top 50 tabs