» » »

Key To The Highway Tabs (ver.1)

Artists:  A B C D E F G H I J K L M N O P Q R S T U V W X Y Z # 

Key To The Highway Tabs (ver.1)

B. B. King
Rating:
0/5 (0 votes)

Tabs too difficult? Try these video lessons and learn fast.
                Acoustic Solo


E-----\9--9--9--9--9--9--9------14--12--11--10--8---------------------------|
B-----\8--8--8--8--8--8--8--10---------------------12--10-------------------|
G-----\9--9--9--9--9--9--9--------------------------------------------------|
D---------------------------------------------------------------------------|
A---------------------------------------------------------------------------|
E---------------------------------------------------------------------------|

E--------------------------------14--12--11--10--8--8-----------------------|
B---------10-----10------------------------------------10-------------------|
G----\11----\11------11-----------------------------------------------------|
D------------------------12--10---------------------------------------------|
A---------------------------------------------------------------------------|
E---------------------------------------------------------------------------|

E---------------8^------10^--10--8------------------------------------------|
B--------8--10------10--------------10--8-----8^--8^------------------------|
G----\9------------------------------------9----------9---------------------|
D---------------------------------------------------------------------------|
A---------------------------------------------------------------------------|
E---------------------------------------------------------------------------|

E----------------------------------------------------------------------------|
B--------8-----8h10p8---------------\10--8--8--7--7--6--6--5----5------------|
G----\9-----9----------9--7h9-------------------------------\6-----6---------|
D------------------------------10--7----------------------------------7------|
A------------------------------------------------------------------------7~~-|
E----------------------------------------------------------------------------|

E----\9--9--9--9--9--9--9------------10-----10-----10------------------------|
B----\8--8--8--8--8--8--8------------9------9------9--------10--12--12^--12--|
G----\9--9--9--9--9--9--9-------------------------------\11------------------|
D------------------------\11--10--9------9------9----------------------------|
A----------------------------------------------------------------------------|
E----------------------------------------------------------------------------|

E----------------------------------------------------------------------------|
B--12^--12^--10h12p10-----8h10--8h10--8--5---------------5-------------------|
G-------------------------------------------7--6------\6----7-6--------------|
D-------------------------------------------------7-------------7------------|
A-----------------------------------------------------------------7--5--6--7-|
E----------------------------------------------------------------------------|

E--------------------------5----------------------------5--3--3--2--2--1--1-|
B---\5--5---\5--5---\5--5-----3--------2\3--1-----2-----5--5--5--3--3--1--1-|
G--------------------------------5--2----------2--2-----6--0--0--2--2--2--2-|
D-------------------------------------------------2-------------------------|
A-------------------------------------------------0-------------------------|
E---------------------------------------------------------------------------|


E--------------0------------------------------------------------------------|
B---2----------0------------------------------------------------------------|
G---2----------1------------------------------------------------------------|
D---2-------2--2------------------------------------------------------------|
A---0--3\4-----2------------------------------------------------------------|
E--------------0------------------------------------------------------------|
            
Tabs too difficult? Try these video lessons and learn fast.




comments powered by Disqus
↑ Back to top | Tablatures and chords are parodies/interpretations of the original songs. You may use it for private study, scholarship, research or language learning purposes only