» » »

B. B. King, Keep It Coming Tabs (ver.1)

Artists:  A B C D E F G H I J K L M N O P Q R S T U V W X Y Z # 

Keep It Coming Tabs (ver.1)

B. B. King Tabs
 Rating:
4/5 (4 votes)
Keep It Coming lessons Tabs too difficult? Try these video lessons and learn fast
                E-13^-11--------------------------|
B--------13~----------------------|
G---------------------------------|
D---------------------------------|
A---------------------------------|
E---------------------------------|

E--------------------------------|
B-11-----------------------------|
G----12-10-----------------------|
D----------13---10---------------|
A------------------13-10---------|
E------------------------13------|

E--------------------------------|
B-11-11--------------------------|
G--------------------------------|
D-------10-13^(1/4)--10-12----10-|
A--------------------------12----|
E--------------------------------|

E-18^---------------------------------|
B-----16-----18^-16------15-----------|
G--------17---------17------17--------|
D-------------------------------------|
A-------------------------------------|
E-------------------------------------|

E---------------------------|
B---------------------------|
G-15------------------------|
D----17-15------------------|
A----------18^(1/2)--15-----|
E-----------------------18--|

E--------------------------------|
B--------------------------------|
G----15-17-15h17-15--------------|
D-17----------------15^(1-2)v----|
A-----------------------------18-|
E--------------------------------|

E-15^(1/4)-15^(1/4)------------|
B-15^(1/2)-15^(1/2)-13---------|
G----------------------15------|
D------------------------------|
A------------------------------|
E------------------------------|

E------------------------------|
B-13---------------------------|
G----15-12---------------------|
D----------15^(1/2)V-13--------|
A-----------------------15-----|
E------------------------------|

E-18^-------------------------------|
B-----13----------------------------|
G--------15-12----------------------|
D--------------15^(1/2)v-13---------|
A---------------------------15------|
E-----------------------------------|

E-13^-11---------13^-13^-13-11-10----|
B--------13-----------------------13-|
G------------------------------------|
D------------------------------------|
A------------------------------------|
E------------------------------------|

E-------------------11^-11-8-----------|
B-11h13-11h13-11h13----------11-8------|
G---------------------------------10-8-|
D--------------------------------------|
A--------------------------------------|
E--------------------------------------|

Organ Part:C Eb F G Eb F Eb repeated
            
Submit corrections

comments powered by Disqus
↑ Back to top | B. B. King Tabs for Keep It Coming. Lyrics for acoustic guitar and electric guitar. Tablatures and chords are parodies/interpretations of the original songs. You may use it for private study, scholarship, research or language learning purposes only