» » »

B. B. King, In The Midnight Hour Tabs (ver.1)

Artists:  A B C D E F G H I J K L M N O P Q R S T U V W X Y Z # 

In The Midnight Hour Tabs (ver.1)

B. B. King Tabs
Rating:
0/5 (0 votes)
In The Midnight Hour lessons Tabs too difficult? Try these video lessons and learn fast
                B.B. King
In the Midnight Hour
Tuning: Standard

Intro:
|----------------------------------11------------------------------|
|-14b16---14-11~---13b15rp11----------14-11~-\------13b15rp11-13---|
|----------------------------12------------------------------------|
|------------------------------------------------------------------|
|------------------------------------------------------------------|
|------------------------------------------------------------------|

|------------------------------|
|-11~-----11~---11~------11\---|
|-----12------------12---------|
|------------------------------|
|------------------------------|
|------------------------------|

Verse:
|------------------------------------------------------------------|
|-11~--------------13b15rp11---------11~------------13b15r-11~-----|
|-----12---------------------------------12------------------------|
|------------------------------------------------------------------|
|------------------------------------------------------------------|
|------------------------------------------------------------------|

Bridge/Chorus:
|-14b16--------------------------------------------|
|---------13b15rp11---------------13b15rp11--------|
|-------------------12-----------------------------|
|--------------------------------------------------|
|--------------------------------------------------|
|--------------------------------------------------|

|---------------------------------------------|
|----11--11-13~-11~-------13b15rp11-13-11~----|
|-12------------------------------------------|
|---------------------------------------------|
|---------------------------------------------|
|---------------------------------------------|

|----------------------------------------16--------------|
|-------------------------------------------16b18rp14----|
|-----------------------------------------------------15-|
|-5h6--5h6--5h6--5h6--3--3-3-3-3-3-3-3-------------------|
|--------------------------------------------------------|
|--------------------------------------------------------|

Verse: (0:52)
|-----------------------------------------------------14b16-----------|
|-11~--------------13b15-13-11~-13-------13b15--------------13--11~---|
|----12---------------------------------------------------------------|
|---------------------------------------------------------------------|
|---------------------------------------------------------------------|
|---------------------------------------------------------------------|

Bridge/Chorus: (1:10)
|--------13b15-------------------------13b15-----------------------|
|-13b15---------13b15rp11---------------------13b15rp11------------|
|-------------------------12~----------------------------12--------|
|------------------------------------------------------------------|
|------------------------------------------------------------------|
|------------------------------------------------------------------|

|------------------------------------------------------------------|
|-----11-13--11~-13-----------16b18--16-14-------------------------|
|-12---------------------------------------15-15~-17b19------------|
|------------------------------------------------------------------|
|------------------------------------------------------------------|
|------------------------------------------------------------------|

Guitar Solo: (1:30)
|-18~~----------------------------------------11-----------11------|
|------18b20---15---------------11-13---13b15--------13b15---------|
|-----------------15-15~-------------------------------------------|
|------------------------------------------------------------------|
|------------------------------------------------------------------|
|------------------------------------------------------------------|

|-------11-------11-13----------------------------------11-11b13==-----|
|-13b15----13b15-------13b15-11~---11-13--13b15---13b15-----------11~--|
|-------------------------------12-------------------------------------|
|----------------------------------------------------------------------|
|----------------------------------------------------------------------|
|----------------------------------------------------------------------|

|-14b16-14b16--16--16--16-----------------------------14b16----13--|
|-------------------------13b16--13-11--11-11~---------------------|
|---------------------------------------------12-12----------------|
|------------------------------------------------------------------|
|------------------------------------------------------------------|
|------------------------------------------------------------------|

|-11~------------------------11b13--13--------------14b16--13~-----|
|-----13b15r-11-11~--13b15------------------11~--------------------|
|----------------------------------------12-----12-----------------|
|------------------------------------------------------------------|
|------------------------------------------------------------------|
|------------------------------------------------------------------|

|-14b16=--13-11----------------------------------------------------|
|---------------14-13-13-13-11~--13-13b15r--11---------------------|
|----------------------------------------------12------------------|
|------------------------------------------------------------------|
|------------------------------------------------------------------|
|------------------------------------------------------------------|

|-18~--15b15.5---13~--18\----11-11-11-10---------------------13b15-|
|-----------------------------------------13--11-13--13b15---------|
|------------------------------------------------------------------|
|------------------------------------------------------------------|
|------------------------------------------------------------------|
|------------------------------------------------------------------|

|-13--11-11---------------------------------------------------------|
|--------------13b15rp11-13---11~-------13b15-13-11----13b15rp11-11-|
|------------x---------------------12-------------------------------|
|-----------x-------------------------------------------------------|
|----------x--------------------------------------------------------|
|-------------------------------------------------------------------|

|-----------------------------------------------------13b15--------|
|-11-----11~-------------------------------------------------------|
|----x-------------------------------------------------------------|
|----x---------5h6--5h6--5h6--5h6--3--3-3-3-3-3-3-3----------------|
|------------------------------------------------------------------|
|------------------------------------------------------------------|

Chorus: (2:26)
|------------------------------------------------------------------|
|-13b15rp11-11-----------11~~-------13b15--11~--------13b15rp11-11-|
|------------------------------------------------------------------|
|------------------------------------------------------------------|
|------------------------------------------------------------------|
|------------------------------------------------------------------|

|-------------------------------------16b18~-----------------------|
|-----11-13--11~---13b15rp11-------------------13b15-11~-----------|
|-12~------------------------12------------------------------------|
|------------------------------------------------------------------|
|------------------------------------------------------------------|
|------------------------------------------------------------------|

|---------------------------------------------------14b16-13------------|
|-11~---11~---11~---11~---11--------13b15-13p11--------------13b15r-11~-|
|-----------------------------------------------------------------------|
|-----------------------------------------------------------------------|
|-----------------------------------------------------------------------|
|-----------------------------------------------------------------------|

-Fade Out-
            

comments powered by Disqus
↑ Back to top | B. B. King Tabs for In The Midnight Hour. Lyrics for acoustic guitar and electric guitar. Tablatures and chords are parodies/interpretations of the original songs. You may use it for private study, scholarship, research or language learning purposes only