» » »

Guess Who Tabs (ver.2)

Artists:  A B C D E F G H I J K L M N O P Q R S T U V W X Y Z # 

Guess Who Tabs (ver.2)

B. B. King
Rating:
0/5 (0 votes)

Hard to play? Try these video lessons and learn fast.
                (Intro)
Guess Who

B.B. King

This is my first tab, hope it's all right.  

I don't think that the note under the *** is correct.

b = bend
r = release bend
v = vibrato
/ = slide
() = ghost note


-------------|------9--------|------9-------|---------------|
--11b--11b---|--11b---11b-9v-|--12b----11v--|--11-9---------|
-------------|---------------|--------------|-------12-12v--|
-------------|---------------|--------------|---------------|
-------------|---------------|--------------|---------------|
-------------|---------------|--------------|---------------|

----------|---------------------------|-----------------------------|
--14-14v--|--12-14-12-14-12-14-14/16--|--17br---17b-11-9-9-(11brb)--|
----------|---------------------------|-----------------------------|
----------|---------------------------|-----------------------------|
----------|---------------------------|-----------------------------|
----------|---------------------------|-----------------------------|

-----------------------------|--------------------|------------|
--17br--17b-11-9-9--9-11brb--|--17b-17b--17-14-9--|--17b-17br--|
-----------------------------|--------------------|------------|
-----------------------------|--------------------|------------|
-----------------------------|--------------------|------------|
-----------------------------|--------------------|------------|


                             ***
--17/--|--------------------------|-----------------|
-------|--17v--17b--17-15-17-12v--|--11b(r)p9----9--|
-------|--------------------------|-----------10----|
-------|--------------------------|-----------------|
-------|--------------------------|-----------------|
-------|--------------------------|-----------------|

----------------------|-----------|---------------------------|
--11b--11b(r)p9----9--|--11p9-----|--12-14-12-14-12-14-14/16--|
----------------10----|-------10--|---------------------------|
----------------------|-----------|---------------------------|
----------------------|-----------|---------------------------|
----------------------|-----------|---------------------------|

---------------------------|----------------|----------------|
--17b---17-15-17-----------|----------------|-----9-11b(r)b--|
-----------------15-13-13--|--16b-16-13-13--|--10------------|
---------------------------|----------------|----------------|
---------------------------|----------------|----------------|
---------------------------|----------------|----------------|

-----------------|-----|
-----11-9--------|--7--|
--10------6-7-8--|--8--|
-----------------|-----|
-----------------|-----|
-----------------|-----|
            
Hard to play? Try these video lessons and learn fast. | Correct




comments powered by Disqus
↑ Back to top | Tablatures and chords are parodies/interpretations of the original songs. You may use it for private study, scholarship, research or language learning purposes only