» » »

Bayside, Existing In A Crisis Evalyn Tabs (ver.1)

Artists:  A B C D E F G H I J K L M N O P Q R S T U V W X Y Z # 

Existing In A Crisis Evalyn Tabs (ver.1)

Bayside Tabs
Rating:
0/5 (0 votes)
Existing In A Crisis Evalyn lessons Tabs too difficult? Try these video lessons and learn fast
                			Existing in a Crisis(Evalynn) - Bayside
Feel free to E-mail me for questions
Tuning:Dadgbe

Lead Intro
e|------------------------------------------------------------------|
B|----------------------------------------------------------3/5-3---|
G|----4h5p4---4-------------------------------4h5p4---4-------------|
D|----------7---5----------7b(8)r-5h7-5-----5-------7---5-----------|
A|5-7-------------5-7\5-5---------------5h7---------------5---------|
D|------------------------------------------------------------------|

Verse
e|-----------------------------------------------------------|
B|-----------------------------------------------------------|
G|-------5------------------5--------------------------------|
D|-2xxxxx5xxxxx5------2xxxxx5xxxxx555-5-2-222-2-33-333-33-3--|
A|-2xxxxx3xxxxx5-(x2)-2xxxxx3xxxxx555-5-2-222-2-33-333-33-3--|
D|-2xxxxx-xxxxx5------2xxxxx-xxxxx555-5-2-222-2-33-333-33-3--|

Re-Intro
e|------------------------------------------------------------------|
B|----------------------------------------------------------3/5-3---|
G|----4h5p4---4-------------------------------4h5p4---4-------------|
D|----------7---5----------7b(8)r-5h7-5-----5-------7---5-----------|
A|5-7-------------5-7\5-5---------------5h7---------------5---------|
D|------------------------------------------------------------------|

Verse
e|-----------------------------------------------------------|
B|-----------------------------------------------------------|
G|-------5------------------5--------------------------------|
D|-2xxxxx5xxxxx5------2xxxxx5xxxxx555-5-2-222-2-33-333-33-3--|
A|-2xxxxx3xxxxx5-(x2)-2xxxxx3xxxxx555-5-2-222-2-33-333-33-3--|
D|-2xxxxx-xxxxx5------2xxxxx-xxxxx555-5-2-222-2-33-333-33-3--|


Pre-Chorus
e|---------------------|
B|---------------------|
G|-------3/7-77777777--|
D|-1~----3/7-77777777--|
A|-1~----1/5-55555555--|
D|-1~------------------|

Chorus
e|------------------------------------------|
B|------------------------------------------|
G|---------33-3333-------3333--------5555---|
D|-55-5555-33-3333-11-xx-3333-x-11-x-5555---|  (x2)
A|-55-5555-11-1111-11-xx-1111-x-11-x-3333---|
D|-55-5555---------11-xx------x-11-x--------|

Re-Intro
e|------------------------------------------------------------------|
B|----------------------------------------------------------3/5-3---|
G|----4h5p4---4-------------------------------4h5p4---4-------------|
D|----------7---5----------7b(8)r-5h7-5-----5-------7---5-----------|
A|5-7-------------5-7\5-5---------------5h7---------------5---------|
D|------------------------------------------------------------------|

Second Verse
e|----------------------------------|
B|----------------------------------|
G|-----5/7/9/11/12------------------|
D|-2/5-5/7/9/11/12--33-3333-33-3333-|
A|-2/5-3/5/7/9-/10--33-3333-33-3333-|
D|-2/5--------------33-3333-33-3333-|

Pre-Chorus
e|---------------------|
B|---------------------|
G|-------3/7-77777777--|
D|-1~----3/7-77777777--|
A|-1~----1/5-55555555--|
D|-1~------------------|

Chorus
e|------------------------------------------|
B|------------------------------------------|
G|---------33-3333-------3333--------5555---|
D|-55-5555-33-3333-11-xx-3333-x-11-x-5555---|  (x2)
A|-55-5555-11-1111-11-xx-1111-x-11-x-3333---|
D|-55-5555---------11-xx------x-11-x--------|

Bridge
e|-------------------------------------|
B|-------------------------------------|
G|-----------5555-99-77-555-5-777-7-7--|
D|-2222-5555-5555-99-77-555-5-777-7-7--|
A|-2222-5555-3333-77-55-333-3-555-5-5--|
D|-2222-5555---------------------------|
   .... .... .... .. .. ... . ... . .

Pre-Chorus
e|---------------------|
B|---------------------|
G|-------3/7-77777777--|
D|-1~----3/7-77777777--|
A|-1~----1/5-55555555--|
D|-1~------------------|

Chorus
e|------------------------------------------|
B|------------------------------------------|
G|---------33-3333-------3333--------5555---|
D|-55-5555-33-3333-11-xx-3333-x-11-x-5555---| w/o drums
A|-55-5555-11-1111-11-xx-1111-x-11-x-3333---|
D|-55-5555---------11-xx------x-11-x--------|

Chorus
e|------------------------------------------|
B|------------------------------------------|
G|---------33-3333-------3333--------5555---|
D|-55-5555-33-3333-11-xx-3333-x-11-x-5555---|  (x3)
A|-55-5555-11-1111-11-xx-1111-x-11-x-3333---|
D|-55-5555---------11-xx------x-11-x--------|

| /  slide up
| \  slide down
| h  hammer-on
| p  pull-off
| ~  vibrato
| +  harmonic
| x  Mute note
| .  Palm mute
            

comments powered by Disqus
↑ Back to top | Bayside Tabs for Existing In A Crisis Evalyn. Lyrics for acoustic guitar and electric guitar. Tablatures and chords are parodies/interpretations of the original songs. You may use it for private study, scholarship, research or language learning purposes only