» » »

Bauhaus, The Santiy Assassin Bass tabs (ver.1)

Artists:  A B C D E F G H I J K L M N O P Q R S T U V W X Y Z # 

The Santiy Assassin Bass tabs (ver.1)

Bauhaus Tabs
 Rating:
4/5 (4 votes)
The Santiy Assassin lessons Tabs too difficult? Try these video lessons and learn fast
                Intro 2x
|-------------------------|------------------------|
|-------------------------|------------------------|
|-5-5-3-5-3---5-5-3-5-3---|-0-0-3-0-3---0-0-3-0-3--|
|-------------------------|------------------------|
 

The guitar enters in Vers I
The song comes in after 4x of Vers I

Vers I 12x
|-------------------------|------------------------|
|-------------------------|------------------------|
|-5-5-3-5-3---5-5-3-5-3---|-0-0-3-0-3---0-0-3-0-3--|
|-------------------------|------------------------|

Refräng 1x
|-----------------|-----------------|
|-------10----10--|-----------------|
|-13-13----13-----|-12-12-13-12-13--|
|-----------------|-----------------|

|-----------------|------(2x)-------|
|-------10----10--|-11-11-13-11-13--|
|-13-13----13-----|-----------------|
|-----------------|-----------------|

Vers II 8x
|-----------------|-----------------|
|-12-12-10-12-10--|-------10----10--|
|-----------------|-12-12----12-----|
|-----------------|-----------------|

Refräng 1x
Vers I 8x
Refräng 1x
Vers I 12x (fade out)


copyright Sandro Colombo
            
Submit corrections

comments powered by Disqus
↑ Back to top | Bauhaus Bass for The Santiy Assassin. Lyrics for acoustic guitar and electric guitar. Tablatures and chords are parodies/interpretations of the original songs. You may use it for private study, scholarship, research or language learning purposes only