>
 >
She's In Parties

She's In Parties Guitar Tabs

Bauhaus - She's In Parties chords, tabs, tablatures, lyrics

Guitar lessons | Add/correct | Request | Top 50 tabs Artists:  A B C D E F G H I J K L M N O P Q R S T U V W X Y Z 0-9

She's In Parties Guitar Tabs – Bauhaus

CD, Sheet music, Poster

Do you like She's In Parties? Share with your friends now
Bass TabsBass Tabs v2ChordsTabs
Use a faster paced chorus or vibrato with medium distortion/overdrive.

intro
e :-------------------------------------------------------|
B :-------------------------------------------------------|
G :5--5-5-5-4---5--5-5-5-4---5--5-5-5-4-2--0-0-0-2--------|
D :--------------------------------------------------0-2--|
A :-------------------------------------------------------|
E :-------------------------------------------------------|

e :---------------------------------|
B :---------------------------------|
G :0-0-0-2--2/-5--5-5-5/-7-7-7-7/-2-|
D :---------------------------------|
A :---------------------------------|
E :---------------------------------|


verse chorus
e :---------------------------------5----5/-13----13-5-----|
B :---------------------------------5----5/-13----13-5-----|
G :-----------0-0-0-2---------------6----6/-14----14-6-----|
D :0-0-0-2---------------0-0-0-2----7----7/-15----15-7-----|
A :--------------------------------------------------------|
E :--------------------------------------------------------|

e :--------5----5/-13-13-13-13-13-13-5-------------|
B :--------5----5/-13-13-13-13-13-13-5-------------|
G :--------6----6/-14-14-14-14-14-14-6-------------|
D :--------7----7/-15-15-15-15-15-15-7-------------|
A :------------------------------------------------|
E :-5-1-----------------------------------5-1------|

interlude
e :----------------------------------------------------------|
B :----------------------------------------------------------|
G :5--5-5-5-4---5--5-5-5-4---5--5-5-5--7-7^9-9-9-9-9^7-7-2---|
D :----------------------------------------------------------|
A :----------------------------------------------------------|
E :----------------------------------------------------------|

verse
e :--------------------|
B :--------------------|
G :------0002----------|
D :0002--------0002----|
A :--------------------|
E :--------------------|

bridge
 pm--------------------------------------------------------------|
e :--------------------------------------------------------------|
B :--------------------------------------------------------------|
G :--------------------------------------------------------------|
D :--------------------------------------------------------------|
A :7-7-7-7-7-7-7-7-7-7-7-7-7-7-7-7-5-5-5-5-5-5-5-3-3-3-3-2-2-2-2-|
E :--------------------------------------------------------------|

chorus
e :--------------------------------|
B ::--------------------------:----|
G :-6--6-6-6-6-6--2--2-2-2-2-2---6-|
D :-7--7-7-7-7-7--3--3-3-3-3-3---7-|
A ::7--7-7-7-7-7--3--3-3-3-3-3:--7-|
E :-5--5-5-5-5-5--1--1-1-1-1-1---5-|

interlude 2 (this is close, kinda strange timing)
e :-------------12----------------12----5----5----5----5-5---|
B ::---13-------13----13-------13-13----5----5----5----5-5---|
G :-12----12-12----12----12-12----------5----5----5----5-5---|
D :----------------------------------------------------------|
A ::---------------------------------------------------------|
E :----------------------------------------------------------|

interlude 3
light pm---------------------------------|
 e :-------------------------------------|
 B :-------------------------------------|
 G :2-5--2-2-5-2--4--5-4-5-4-5--2--2/-14-|
 D :-------------------------------------|
 A :-------------------------------------|
 E :-------------------------------------|

bridge 2
e :5----5----13----13----5------------5----5----13----13--|
B :5----5----13----13----5------------5----5----13----13--|
G :5----5----13----13----5------------5----5----13----13--|
D :-------------------------------------------------------|
A :-------------------------------------------------------|
E :---------------------------5-1--/----------------------|


chorus play out
e :--------------------------------|
B :--------------------------------|
G :-6--6-6-6-6-6--2--2-2-2-2-2---6-|
D :-7--7-7-7-7-7--3--3-3-3-3-3---7-|
A :-7--7-7-7-7-7--3--3-3-3-3-3---7-|
E :-5--5-5-5-5-5--1--1-1-1-1-1---5-|





Comments


Popular Bauhaus tabs & chords
Bella Lugosis Dead 1 Bass Tabs
Dancing Bass Tabs
Dancing 2 Bass Tabs
Endless Summer Of The Damned 2 Bass Tabs
Hollow Hills Bass Tabs
Party Of The First Part Bass Tabs
In The Flat Field Tabs
Nerves 1 Tabs
Three Shadows Part 2 Tabs
Antonin Artaud Ukulele


Song lyrics



↑ Back to top | Tablatures and chords are parodies/interpretations of the original songs. You may use it for private study, scholarship, research or language learning purposes only
© 2014 AZChords.com Contact us | Privacy policy | DMCA | Add/correct tabs | Request tabs | Top 50 tabs