» » »

In The Flat Field Tabs (ver.1)

Artists:  A B C D E F G H I J K L M N O P Q R S T U V W X Y Z # 

In The Flat Field Tabs (ver.1)

Bauhaus
Rating:
0/5 (0 votes)

Hard to play? Try these video lessons and learn fast.
                   Title: IN THE FLAT FIELDS

THESE ARE THE PARTS, LISTEN FOR THE ORDER.  OVERDRIVE & DELAY.

  INTRO
e :-----------------------------------------------|
B :-----------------------------------------------|
G :13p12h13p12h13p12h13p12---13p0h13p0h13p0h13p0--|
D :-----------------------------------------------|
A :-----------------------------------------------|
E :-----------------------------------------------|

  THING 1
e :10-10-10-10--10-10-10-10-10-10-12^13--12-12-12-12-|
B :10-10-10-10--10-10-10-10-10-10-10--10-12-12-12-12-|
G :--------------------------------------------------|
D :--------------------------------------------------|
A :--------------------------------------------------|
E :--------------------------------------------------|

e :-12-12-12-12-12-12-14^15--|
B :-12-12-12-12-12-12-12--12-|
G :--------------------------|
D :--------------------------|
A :--------------------------|
E :--------------------------|

  MAIN VERSE         MAIN VERSE ALT
repeat thru verse    repeat thru verse
pm-------------    pm------------              pm----------|
e :9-9-9-9-10-9---e:-9-9-9-9-10-9-0-0-0-0-0-0-0-9-9-9-10-9-|
B :---------------B:---------------------------------------|
G :---------------G:---------------------------------------|
D :---------------D:---------------------------------------|
A :---------------A:---------------------------------------|
E :---------------E:---------------------------------------|

  CHORUS repeat thru chorus
"i do get bored..."
 e :21^22^21-21^22-------|
 B :---------------21^20-|
 G :---------------------|
 D :---------------------|
 A :---------------------|
 E :---------------------|
 MAIN CHORDS
e:--------------------------|
B:--------------------------|
G:--9----9-9----5----5-5----|
D:--9----9-9----5----5-5----|
A:--7----7-7-0--3----3-3-3--|
E:--------------------------|


  THING 2
e :12-12-12-12--12-12-12-12-12-12-14^15--14/15-15-15-|
B :12-12-12-12--12-12-12-12-12-12-12--12-14/15-15-15-|
G :--------------------------------------------------|
D :--------------------------------------------------|
A :--------------------------------------------------|
E :--------------------------------------------------|

e :-15-15-15-15-15-15-17^19--|
B :-15-15-15-15-15-15-15--15-|
G :--------------------------|
D :--------------------------|
A :--------------------------|
E :--------------------------|

  FILL THING
e :17^19-19---------17^19-19-------20^21-|
B :---------17^15------------17^15-------|
G :--------------------------------------|
D :--------------------------------------|
A :--------------------------------------|
E :--------------------------------------|

  BRIDGEVERSE 1
e :0-0-0-0-0-0-0-0-0-0-0-0-0-0-0-0-0-0-0-0-|
B :----------------------------0-0-0-0-0-0-|
G :----------------------------------------|
D :----------------------------------------|
A :----------------------------------------|
E :----------------------------------------|

  BRIDGEVERSE 2
e :----------------------------0-0-0-0-0-0-|
B :5-5-5-5-5-5-5-5-5-5-5-5-5-5-6-6-6-6-6-6-|
G :----------------------------------------|
D :----------------------------------------|
A :----------------------------------------|
E :----------------------------------------|

THERES A SOLO SOMEWHERE, I THINK ITS A MIX OF
THE FILL THING AND THE CHORUS
BUT IM NOT SURE.
            
Hard to play? Try these video lessons and learn fast. | Correct




comments powered by Disqus
↑ Back to top | Tablatures and chords are parodies/interpretations of the original songs. You may use it for private study, scholarship, research or language learning purposes only