» » »

Battalion Of Saints, My Mind's Diseased Bass tabs (ver.1)

Artists:  A B C D E F G H I J K L M N O P Q R S T U V W X Y Z # 

My Mind's Diseased Bass tabs (ver.1)

Battalion Of Saints Tabs
 Rating:
4/5 (4 votes)
My Mind's Diseased lessons Tabs too difficult? Try these video lessons and learn fast
1
                Intro (bass comes in at 6 seconds)
G|-----------------|-----------------|-----------------|-----------------|
D|-----------------|-----------------|-----------------|-----------------|
A|------5-6-----6-7|------5-6-----6-7|------5-6-----6-7|------5-6-----6-7|
E|--5-5-----7-7----|--5-5-----7-7----|--5-5-----7-7----|--5-5-----7-7----|

Verse (singing Comes In)
G|-----------------|-----------------|
D|-----------------|-----------------|
A|------5-6-----6-7|------5-6-----6-7|
E|--5-5-----7-7----|--5-5-----7-7----|

Chorus
G|-----------------------------|-----------------------------|
D|-----------------------------|-----------------------------|
A|--9-9--9-10--5--5-7-7--5--77-|--9-9--9-10--5--5-7-7--5--77-|
E|-----------------------------|-----------------------------|

G|-----------------------------|-----------------------------|
D|-----------------------------|-----------------------------|
A|--9-9--9-10--5--5-7-7--5--77-|--9-9--9-10--5--5-7-7--5--77-|
E|-----------------------------|-----------------------------|

Verse
G|-----------------|-----------------|-----------------|-----------------|
D|-----------------|-----------------|-----------------|-----------------|
A|------5-6-----6-7|------5-6-----6-7|------5-6-----6-7|------5-6-----6-7|
E|--5-5-----7-7----|--5-5-----7-7----|--5-5-----7-7----|--5-5-----7-7----|

Chorus
G|-----------------------------|-----------------------------|
D|-----------------------------|-----------------------------|
A|--9-9--9-10--5--5-7-7--5--77-|--9-9--9-10--5--5-7-7--5--77-|
E|-----------------------------|-----------------------------|

G|-----------------------------|-----------------------------|
D|-----------------------------|-----------------------------|
A|--9-9--9-10--5--5-7-7--5--77-|--9-9--9-10--5--5-7-7--5--77-|
E|-----------------------------|-----------------------------|

Bridge
G|--------------|------------|--------------|------------|
D|--------------|------------|--------------|------------|
A|---5-------3--|------------|---5-------3--|------------|
E|--5---0--3----|--7-7-7-7-7-|--5---0--3----|--7-7-7-7-7-|

G|--------------|------------|--------------|------------|
D|--------------|------------|--------------|------------|
A|---5-------3--|------------|---5-------3--|------------|
E|--5---0--3----|--7-7-7-7-7-|--5---0--3----|--7-7-7-7-7-|

Build up and Verse
G|-----------------|-----------------|-----------------|-----------------|
D|-----------------|-----------------|-----------------|-----------------|
A|------5-6-----6-7|------5-6-----6-7|------5-6-----6-7|------5-6-----6-7|
E|--5-5-----7-7----|--5-5-----7-7----|--5-5-----7-7----|--5-5-----7-7----|

G|-----------------|-----------------|
D|-----------------|-----------------|
A|------5-6-----6-7|------5-6-----6-7|
E|--5-5-----7-7----|--5-5-----7-7----|

Chorus
G|-----------------------------|-----------------------------|
D|-----------------------------|-----------------------------|
A|--9-9--9-10--5--5-7-7--5--77-|--9-9--9-10--5--5-7-7--5--77-|
E|-----------------------------|-----------------------------|

G|-----------------------------|-----------------------------|
D|-----------------------------|-----------------------------|
A|--9-9--9-10--5--5-7-7--5--77-|--9-9--9-10--5--5-7-7--5--77-|
E|-----------------------------|-----------------------------|

Bridge
G|--------------|------------|--------------|------------|
D|--------------|------------|--------------|------------|
A|---5-------3--|------------|---5-------3--|------------|
E|--5---0--3----|--7-7-7-7-7-|--5---0--3----|--7-7-7-7-7-|
                                                         (song falls apart)
G|--------------|------------|--------------|------------|------------|
D|--------------|------------|--------------|------------|------------|
A|---5-------3--|------------|---5-------3--|------------|------6-7-9-|
E|--5---0--3----|--7-7-7-7-7-|--5---0--3----|--7-7-7-7-7-|----7-------|

Last Verse
G|-----------------|-----------------|-----------------|-----------------|
D|-----------------|-----------------|-----------------|-----------------|
A|------5-6-----6-7|------5-6-----6-7|------5-6-----6-7|------5-6-----6-7|
E|--5-5-----7-7----|--5-5-----7-7----|--5-5-----7-7----|--5-5-----7-7----|

Chorus
G|-----------------------------|-----------------------------|
D|-----------------------------|-----------------------------|
A|--9-9--9-10--5--5-7-7--5--77-|--9-9--9-10--5--5-7-7--5--77-|
E|-----------------------------|-----------------------------|

G|-----------------------------|-----------------------------|
D|-----------------------------|-----------------------------|
A|--9-9--9-10--5--5-7-7--5--77-|--9-9--9-10--5--5-7-7--5--77-|
E|-----------------------------|-----------------------------|
            
Submit corrections

comments powered by Disqus
↑ Back to top | Battalion Of Saints Bass for My Mind's Diseased. Lyrics for acoustic guitar and electric guitar. 1 Tablatures and chords are parodies/interpretations of the original songs. You may use it for private study, scholarship, research or language learning purposes only