» » »

Fighting Boys Bass tabs (ver.1)

Artists:  A B C D E F G H I J K L M N O P Q R S T U V W X Y Z # 

Fighting Boys Bass tabs (ver.1)

Battalion Of Saints
Rating:
0/5 (0 votes)

Hard to play? Try these video lessons and learn fast.
                Verse (come in at 16 seconds)
G------------------------------------------|
D------------------------------------------|
A-6/7-7-7-7-6/-7-7-7-7-6/7-7-7-7-12-11-9-7-|
E------------------------------------------|

G------------------------------------------|
D------------------------------------------|
A-6/7-7-7-7-6/-7-7-7-7-6/7-7-7-7-12-11-9-7-|
E------------------------------------------|

G------------------------------------------|
D------------------------------------------|
A-6/7-7-7-7-6/-7-7-7-7-6/7-7-7-7-12-11-9-7-|
E------------------------------------------|

G------------------------------------------|
D------------------------------------------|
A-6/7-7-7-7-6/-7-7-7-7-6/7-7-7-7-12-11-9-7-|
E------------------------------------------|

Chorus
G---------------------------------|-------------------------------------|
D---------------------------------|-------------------------------------|
A-4/5-5-5-5-4/5-5-5-5--7--7--7--7-|-4/5-5-5-5-4/5-5-5-5-3-3-3-3-2-2-2-2-|
E---------------------------------|-------------------------------------|

Verse
G------------------------------------------|
D------------------------------------------|
A-6/7-7-7-7-6/-7-7-7-7-6/7-7-7-7-12-11-9-7-|
E------------------------------------------|

G------------------------------------------|
D------------------------------------------|
A-6/7-7-7-7-6/-7-7-7-7-6/7-7-7-7-12-11-9-7-|
E------------------------------------------|

G------------------------------------------|
D------------------------------------------|
A-6/7-7-7-7-6/-7-7-7-7-6/7-7-7-7-12-11-9-7-|
E------------------------------------------|

G------------------------------------------|
D------------------------------------------|
A-6/7-7-7-7-6/-7-7-7-7-6/7-7-7-7-12-11-9-7-|
E------------------------------------------|

Chorus
G---------------------------------|-------------------------------------|
D---------------------------------|-------------------------------------|
A-4/5-5-5-5-4/5-5-5-5--7--7--7--7-|-4/5-5-5-5-4/5-5-5-5-3-3-3-3-2-2-2-2-|
E---------------------------------|-------------------------------------|

Verse
G------------------------------------------|
D------------------------------------------|
A-6/7-7-7-7-6/-7-7-7-7-6/7-7-7-7-12-11-9-7-|
E------------------------------------------|

G------------------------------------------|
D------------------------------------------|
A-6/7-7-7-7-6/-7-7-7-7-6/7-7-7-7-12-11-9-7-|
E------------------------------------------|

G------------------------------------------|
D------------------------------------------|
A-6/7-7-7-7-6/-7-7-7-7-6/7-7-7-7-12-11-9-7-|
E------------------------------------------|

G------------------------------------------|
D------------------------------------------|
A-6/7-7-7-7-6/-7-7-7-7-6/7-7-7-7-12-11-9-7-|
E------------------------------------------|

Chorus
G---------------------------------|---------------------------------|
D---------------------------------|---------------------------------|
A-4/5-5-5-5-4/5-5-5-5--7--7--7--7-|-4/5-5-5-5-4/5-5-5-5--7--7--7--7-|
E---------------------------------|---------------------------------|

G---------------------------------|-------------------------------------|
D---------------------------------|-------------------------------------|
A-4/5-5-5-5-4/5-5-5-5--7--7--7--7-|-4/5-5-5-5-4/5-5-5-5-3-3-3-3-2-2-2-2-|
E---------------------------------|-------------------------------------|

Outro
G------------------------------------------|-----------|-----------|---|
D------------------------------------------|-----------|-----------|---|
A-6/7-7-7-7-6/-7-7-7-7-6/7-7-7-7-12-11-9-7-|-12-11-9-7-|-12-11-9-7-|-5-|
E------------------------------------------|-----------|-----------|---|

___________________________________________________________________________
            
Hard to play? Try these video lessons and learn fast. | Correct




comments powered by Disqus
↑ Back to top | Tablatures and chords are parodies/interpretations of the original songs. You may use it for private study, scholarship, research or language learning purposes only