» » »

War Tabs (ver.1)

Artists:  A B C D E F G H I J K L M N O P Q R S T U V W X Y Z # 

War Tabs (ver.1)

Bathory
Rating:
0/5 (0 votes)

Hard to play? Try these video lessons and learn fast.
                Label: Black Mark

Intro and the 2 Verses
e-----------------------------------------------|
B-----------------------------------------------|
G-----------------------------------------------|  Do it since the song begins
D--6-----------9-9-9-6----------4-4-4-6---------|  until the verse 1 ends.
A--6-----------9-9-9-6----------4-4-4-6---------|
E--4-54545454--7-7-7-4-54545454-2-2-2-4---------|

Chorus

e------------------------|
B------------------------|
G------------------------|
D-6--------8-9--------6--| 4 times
A-6--------8-9--------6--|
E-4-444444-6-7-777777-4--|

Solo

e--------------------------------------------------------------------------|
B-11---10---101110111011---15---14---141514151415---19-19^-17-15-13-11->13-|
G--------------------------------------------------------------------------|
D--------------------------------------------------------------------------|
A--------------------------------------------------------------------------|
E--------------------------------------------------------------------------|

Outro

e--------------------------------------------------------------------------|
B--------------------------------------------------------------------------|
G--------------------------------------------------------------------------|
D-6--------8-9--------6--------8-9--------6--------8-9--------6--------8-9-|
A-6--------8-9--------6--------8-9--------6--------8-9--------6--------8-9-|
E-4-444444-6-7-777777-4-444444-6-7-777777-4-444444-6-7-777777-4-444444-6-7-|

Meaning of the symbols
^=Vibrato
=slide

I'm not 100% sure of the solo part, but i think it's some like that.
Any suggestions or comments are welcome to my e-mail.

Enjoy!
            
Hard to play? Try these video lessons and learn fast. | Correct




comments powered by Disqus
↑ Back to top | Tablatures and chords are parodies/interpretations of the original songs. You may use it for private study, scholarship, research or language learning purposes only