» » »

Bathory, Vinland Tabs (ver.1)

Artists:  A B C D E F G H I J K L M N O P Q R S T U V W X Y Z # 

Vinland Tabs (ver.1)

Bathory Tabs
Rating:
0/5 (0 votes)
Vinland lessons Tabs too difficult? Try these video lessons and learn fast
                -------------------------------------------------------------------------------
-------------------------------------------------------------------------------

 THIS IS BASICALLY ALL OF THE SONG JUST REPEAT THE PARTS IN THE RIGHT ORDER
  EASY SONG TO PLAY THIS BAND WASNT VERY TALENTED BUT SOUNDED PRETTY GOOD!

Tuning: Drop D
                    THE x? represents time you play the verse!
e|-------------------------------------------------------x4-------------------------|
B|----------------------------INTRO-------------------------------------------------|
G|----------------------------------------------------------------------------------|
D|-3-6-5-5--3-6-5-5-5/3--3-6-5-5--3-6-10-10-10-10-10-6-6----------------------------|
A|-3-6-5-5--3-6-5-5-5/3--3-6-5-5--3-6-10-10-10-10-10-6-6----------------------------|
D|-3-6-5-5--3-6-5-5-5/3--3-6-5-5--3-6-10-10-10-10-10-6-6----------------------------|

e|-------------------------------------------------------------------------x4----|
B|-------------------------------------------------------------------------------|
G|-------------------------------------------------------------------------------|
D|-3-3-5-5-6-6-6-6-6-6-6-6-6-6-6-6-6-6-6-6-3-3-3-3-3-3-3-3-3-3-3-3-3-3-3-3-------|
A|-3-3-5-5-6-6-6-6-6-6-6-6-6-6-6-6-6-6-6-6-3-3-3-3-3-3-3-3-3-3-3-3-3-3-3-3-------|
D|-3-3-5-5-6-6-6-6-6-6-6-6-6-6-6-6-6-6-6-6-3-3-3-3-3-3-3-3-3-3-3-3-3-3-3-3-------|

e|-----------------------------------------------------------------------------------------x2--|
B|-----------------------------PRE-CHORUS------------------------------------------------------|
G|---------------------------------------------------------------------------------------------|
D|10-8-6/3-6/3-6/3-6-3-3-5-1-----1-----1---10-8-6/3-6/3-6/3-6-8-10----------10----------10-----|
A|10-8-6/3-6/3-6/3-6-3-3-5-1-----1-----1---10-8-6/3-6/3-6/3-6-8-10----------10----------10-----|
D|10-8-6/3-6/3-6/3-6-3-3-5-1-111-1-111-1---10-8-6/3-6/3-6/3-6-8-10-10-10-10-10-10-10-10-10-----|

e|----------------------------------|
B|----------------------------------|
G|----------------------------------|
D|-5-5-5-5-5-5-5-5-5-5-5-5-5-5-5-5--|
A|-5-5-5-5-5-5-5-5-5-5-5-5-5-5-5-5--|
D|-5-5-5-5-5-5-5-5-5-5-5-5-5-5-5-5--|

e|----------------------x4------------|
B|----------------------------CHORUS--|
G|------------------------------------|
D|-3---6-10-8-6-3-5-1-3---------------|
A|-3---6-10-8-6-3-5-1-3---------------|
D|-3---6-10-8-6-3-5-1-3---------------|

e|--------------------------------------------------------------------------------13-15--|
B|--------------------13-------------------13-------------------------------13-15--------|
G|-----------12-14-15----15-14-12-12-14-15----15-14-12-12-14-15----15-14-12--------------|
D|---------------------------------------------------------------------------------------|
A|---------------------------------------------------------------------------------------|
D|-*solo*--------------------------------------------------------------------------------|

e|--------------------------------------------------------------------------------13-17--|
B|--------------------13-------------------13-------------------------------13-15--------|
G|-----------12-14-15----15-14-12-12-14-15----15-14-12-12-14-15----15-14-12--------------|
D|---------------------------------------------------------------------------------------|
A|---------------------------------------------------------------------------------------|
E|---------------------------------------------------------------------------------------|

e|---------------------------------------------------------------------------|
B|---------------------------------------------------------------------------|
G|---------------------------------------------------------------------------|
D|---------------------------------------------------------------------------|
A|---------------------------------------------------------------------------|
E|---------------------------------------------------------------------------|


| /  slide up
| \  slide down
| h  hammer-on
| p  pull-off
| ~  vibrato
| +  harmonic
| x  Mute note
===============================================================================
            
Submit corrections

comments powered by Disqus
↑ Back to top | Bathory Tabs for Vinland. Lyrics for acoustic guitar and electric guitar. Tablatures and chords are parodies/interpretations of the original songs. You may use it for private study, scholarship, research or language learning purposes only