» » »

Total Destruction Tabs (ver.1)

Artists:  A B C D E F G H I J K L M N O P Q R S T U V W X Y Z # 

Total Destruction Tabs (ver.1)

Bathory
Rating:
0/5 (0 votes)

Tabs too difficult? Try these video lessons and learn fast.
                Bathory-Total Destruction

Album-The Return Of The Darkness And Evil(1985)

Okay I just did this today and heard the song by ear and it just blew me away right now 
I learned this song so I'm not sure its correct but just play it while you hear this song.

h=Hammer-on
p=Pull-off
/=slide down
\=slide up


Tuning-DGCFAD

Riff 1 intro
D|-------------------------------|
A|-------------------------------|
F|-------------------------------|
C|-------------------------------|
G|-2-----3/5---2---------3-555---|
D|-0-3p0-1/3---0-3p0-3p0-1-333---|

Riff 2(with lyrics)
D|-------------------------------|
A|-------------------------------|
F|-------------------------------|
C|-------------------------------|
G|-2-----3/5--2-----5\3----------|
D|-0-3p0-1/3--0-3p0-3\1----------|

Chorus
D|-------------------------------------------------|x2
A|-------------------------------------------------|
F|-------------------------------------------------|
C|------------------------------------------7\6----|
G|-7777-9/10--7777--10\9---7777-9/10--7777--5\4----|
D|-5555-7/8---5555---8\7---5555-7/8---5555---------|

Riff 1
Riff 2
Chorus x2

Riff 3a
  (ring)
D|----||----------------------------|
A|----||----------------------------|
F|----||----------------------------|
C|----||----------------------------|
G|-2~-||----5----4----5----7--------|
D|-0~-||-00-3-00-2-00-3-00-5--------|


Riff 3b
D|---------------------------|
A|---------------------------|
F|---------------------------|
C|--------------------3------|
G|-----5----4----5----1------|
D|--00-3-00-2-00-3-00--------|

Riff 4
D|----------------------------------------|
A|----------------------------------------|
F|----------------------------------------|
C|--5-4------------5-4--------------------|
G|--3-2-4/5\4------3-2-4/5\4---7----------|
D|------2/3\2----------2/3\2---5----------|

Riff 5a
D|---------------------------------|
A|---------------------------------|
F|---------------------------------|
C|-------5-4-------3-333--6666-----|
G|-222---3-2--7\5--1-111--4444-----|
D|-000--------5\3------------------|

Riff 5b
D|----------------------------------|
A|----------------------------------|
F|----------------------------------|
C|-------5-4-------3-333------------|
G|-222---3-2--7\5--1-111--3333------|
D|-000--------5\3---------1111------|


D|------|4x let it ring
A|------|
F|------|
C|------|
G|-2----|
D|-0----|

*The ending is like the intro so hope you like it

More coming soon from this album
            
Tabs too difficult? Try these video lessons and learn fast.




comments powered by Disqus
↑ Back to top | Tablatures and chords are parodies/interpretations of the original songs. You may use it for private study, scholarship, research or language learning purposes only