» » »

The Rite Of Darkness Tabs (ver.1)

Artists:  A B C D E F G H I J K L M N O P Q R S T U V W X Y Z # 

The Rite Of Darkness Tabs (ver.1)

Bathory
Rating:
0/5 (0 votes)

Hard to play? Try these video lessons and learn fast.
                
#------------------------------------PLEASE  NOTE----------------------------------------------#

Band   Bathory


Copyright (c)  Under One Flag/Black Mark
Version 1.0 -  17/12/2007

Tuning E A D G B E


. - palm mute / - slide up to
 - slide down to ~ - vibrato
h - hammer on p - pull off
, - slight palm mute () - ghost note, sustained note
" " tremolo note <> - Trill

Suffixes for bend
f - full bend h - half bend
ph - pinched harmonic q - quarter bend
t - tap bend * - see comment
^ - Hold bend r - release bend
x – Staccato ~ - vibrato bend


Riff 1a                           x6
|----------------------------------|
|----------------------------------|
|----------------------------------|
|--2---------------2---------------|
|--0---4-4-4-4-4---0---3-3-3-3-3---|
|------2-2-2-2-2-------1-1-1-1-1---|

Riff 1b                           x2
|----------------------------------|
|----------------------------------|
|----------------------------------|
|--4--------------4----------------|
|--2---6-6-6-6-6--2---5-5-5-5-5----|
|=-----4-4-4-4-4------3-3-3-3-3----|


Riff 3 - Fill (over strange solo)           Play once
|---------------------------------------------------------------|
|---------------------------------------------------------------|
|---------------------------------------------------------------|
|----------3-3-3-3--------------4-4-4-4--3-3-3-3----------------|
|=2-2-2-2--1-1-1-1---2-2-2-2----2-2-2-2--1-1-1-1------2---------|
|-0-0-0-0------------0-0-0-0--------------------------0---------|
            
Hard to play? Try these video lessons and learn fast. | Correct




comments powered by Disqus
↑ Back to top | Tablatures and chords are parodies/interpretations of the original songs. You may use it for private study, scholarship, research or language learning purposes only