» » »

Bathory, Revenge Of The Blood On Ice Tabs (ver.1)

Artists:  A B C D E F G H I J K L M N O P Q R S T U V W X Y Z # 

Revenge Of The Blood On Ice Tabs (ver.1)

Bathory Tabs
 Rating:
4/5 (4 votes)
Revenge Of The Blood On Ice lessons Tabs too difficult? Try these video lessons and learn fast
1
                Band: Bathory
Genre: Viking Metal
Lyrics and Music: Quorthon



(Intro)
D|-----------------------------------------|
A|-----------------------------------------|
F|-----------------------------------------|
C|-------7----------7--------9--------10---|
G|-------7----------7--------9--------10---|
D|-0--0--5----0--0--5--0--0--7--0--0--8----|
   .  .       .  .     .  .     .  .

D|-----------------------------------------|
A|-----------------------------------------|
F|-----------------------------------------|
C|-------7----------7--------5--------3----|
G|-------7----------7--------5--------3----|
D|-0--0--5----0--0--5--0--0--3--0--0--1----|
   .  .       .  .     .  .     .  .

D|-----------------------------------------|
A|-----------------------------------------|
F|-----------------------------------------|
C|-------7----------7--------9--------10---|
G|-------7----------7--------9--------10---|
D|-0--0--5----0--0--5--0--0--7--0--0--8----|
   .  .       .  .     .  .     .  .

D|-----------------------------------------|
A|-----------------------------------------|
F|-----------------------------------------|
C|-------7----------7--------5--------3----|
G|-------7----------7--------5--------3----|
D|-0--0--5----0--0--5--0--0--3--0--0--1----|
   .  .       .  .     .  .     .  .

(Intro 2)
D|-----------------------------------------|
A|-----------------------------------------|
F|-----------------------------------------|
C|-5--2--7-------------------9--------10---|
G|-5--2--7-------------------9--------10---|
D|-3--0--5-------------------7--------8----|

D|-----------------------------------------|
A|-----------------------------------------|
F|-----------------------------------------|
C|-------7-------------------5--------3----|
G|-------7-------------------5--------3----|
D|---0---5-------------------3--------1----|
     .

D|-----------------------------------------|
A|-----------------------------------------|
F|-----------------------------------------|
C|-------7-------------------9--------10---|
G|-------7-------------------9--------10---|
D|---0---5-------------------7--------8----|
     .

D|-------------------------------------------|
A|-------------------------------------------|
F|-------------------------------------------|
C|-------7-------------------5--------3---5--|
G|-------7-------------------5--------3---5--|
D|---0---5-------------------3--------1---3--|
     .

(Verse)

   "Fifteen years have passed..."
D|---------------------------------------------------------|
A|---------------------------------------------------------|
F|---------------------------------------------------------|
C|--2----------5--4--2--0--7--5--4--5--4--2-----3---5/7\5--|
G|--2----------5--4--2--0--7--5--4--5--4--2-----3---5/7\5--|
D|--0----------3--2--0-----5--3--2--3--2--0-----1---3/5\3--|

   "On a steed..."
D|-----------------------------------------|
A|-----------------------------------------|
F|-----------------------------------------|
C|--2----------5--4--2--0--2-----2-----3---|
G|--2----------5--4--2--0--2-----2-----3---|
D|--0----------3--2--0-----0-----0-----1---|

   "Guide me, my ravens"
D|---------------------|
A|---------------------|
F|---------------------|
C|--4--------4---------|
G|--4--------4---------|
D|--2--------2---------|

   "Let your eyes be mine..."
D|--------------------------------------------------------------|
A|--------------------------------------------------------------|
F|--------------------------------------------------------------|
C|-------------------------------------------7--------------4---|
G|--9-7-9---------------7----7-9-7-9-10-9-10---10-9-10-9-7--4---|
D|--------9-7-9-10-9-10---10--------------------------------2---|

D|--------------------------------------------------------------------|
A|--------------------------------------------------------------------|
F|--------------------------------------------------------------------|
C|--5----7----6-------------5--------4--------------------------------|
G|--5----7----6-------------5--------4--------------------------------|
D|--3----5----4----0--0--0--3--0--0--2--0--0--3-2-0-3-2-0-3-2-0-3-2-0-|
                   .  .  .     .  .     .  .  . . . . . . . . . . . .

D|-------------------------------------------------------------------------|
A|-------------------------------------------------------------------------|
F|-------------------------------------------------------------------------|
C|--9----5----7----6-------------5--------4--------------------------------|
G|--9----5----7----6-------------5--------4--------------------------------|
D|--7----3----5----4----0--0--0--3--0--0--2--0--0--3-2-0-3-2-0-3-2-0-3-2-0-|
                        .  .  .     .  .     .  .  . . . . . . . . . . . .

D|------------------------------------------|
A|------------------------------------------|
F|------------------------------------------|
C|--2---3---2---5---3---2---3---2---5---7---|
G|--2---3---2---5---3---2---3---2---5---7---|
D|--0---1---0---3---1---0---1---0---3---5---|

   "Cry Old Crow..."
D|-------------------------------------------------------------------|
A|-------------------------------------------------------------------|
F|-------------------------------------------------------------------|(2x)
C|--6---5---4---------3---------3---------3--------3--------3--------|
G|--6---5---4---------3---------3---------3--------3--------3--------|
D|--4---3---2---1--1--1---1--1--1---1--1--1--1--1--1--1--1--1--1--1--|
                .  .      .  .      .  .     .  .     .  .     .  .

   "Come out of darkness..."
D|------------------------------------------------------------|
A|------------------------------------------------------------|
F|------------------------------------------------------------|
C|--2------------2------------------2------------2------------|
G|--2------------2------------------2------------2------------|
D|--0------3-2-0-0------3-2-0-3-2-0-0------3-2-0-0------3-2-0-|
           . . .        . . . . . .        . . .        . . .

   "I will not let my sword..."
D|------------------------------------------------------------|
A|------------------------------------------------------------|
F|------------------------------------------------------------|
C|--4------------4------------------4------------4------------|
G|--4------------4------------------4------------4------------|
D|--2------3-2-0-2------3-2-0-3-2-0-2------3-2-0-2------3-2-0-|
           . . .        . . . . . .        . . .        . . .

[*]
D|-----------------------|
A|-----------------------|
F|-----------------------|
C|--2------0---3------5--|(4x)
G|--2------0---3------5--|
D|--0-----(0)--1------3--|

  "Gathering speed..."
D|-----------------------------------------------------|
A|-----------------------------------------------------|
F|-----------------------------------------------------|
C|-----------------------------------------------------|
G|-----------------------------------------------------|
D|-0-2-3-2-3-2-0-2-3-2-3-2-0-2-3-2-3-2-0-2-3-2-3-2-0-0-|
   . . . . . . . . . . . . . . . . . . . . . . . . . .

D|-----------------------|
A|-----------------------|
F|-----------------------|
C|--2------0---3------5--|(4x)
G|--2------0---3------5--|
D|--0-----(0)--1------3--|

  "This is the moment..."
D|-----------------|
A|-----------------|
F|-----------------|
C|-----------------|
G|-----------------|
D|-0-2-3-2-3-2-0-0-|
   . . . . . . . .

D|-----------------------|
A|-----------------------|
F|-----------------------|
C|--2------0---3------5--|(4x)
G|--2------0---3------5--|
D|--0-----(0)--1------3--|

  "So close..."
D|-----------------------------------------------------|
A|-----------------------------------------------------|
F|-----------------------------------------------------|
C|-----------------------------------------------------|
G|-----------------------------------------------------|
D|-0-2-3-2-3-2-0-2-3-2-3-2-0-2-3-2-3-5-3-5-7-5-7-8-7-8-|
   . . . . . . . . . . . . . . . . . . . . . . . . . .

D|---------------------------------------|
A|---------------------------------------|
F|---------------------------------------|
C|--7------9---10---------7------5---3---|
G|--7------9---10---------7------5---3---|
D|--5------7---8------0---5------3---1---|
                      .

D|-------------------------------------------|
A|-------------------------------------------|
F|-------------------------------------------|
C|------7------9---10---------7------5---8~--|
G|------7------9---10---------7------5---8~--|
D|--0---5------7---8------0---5------3---6~--|
    .                     .

Then there is a break, followed by something that sounds like a clean guitar passage 
played along with the bass.

D|-------------|-----------------------------------------------------|
A|-------------|-----------------------------------------------------|
F|-------------|-----------------------------------------------------|
C|------2------|-----------------------------------------------------|
G|----2---2----|---2---1-------------1---2---4---2---1---2---1-------|
D|--0-------0--|-1---1---1-4-1-1-4-1---1---1---1---1---1---1---1-4-1-|

D|-----------------------------------------------------|
A|-----------------------------------------------------|
F|-----------------------------------------------------|
C|-----------------------------------------------------|
G|---2---1-------------1---2---2---1-------2---1-------|
D|-1---1---1-4-1-1-4-1---1---1---1---1-4-1---1---1-4-1-|

D|-------------------------------------------------------|
A|-------------------------------------------------------|
F|-------------------------------------------------------|(2x)
C|-------------------------------------------------------|
G|---1---0-------------0---1---1---0---3---1---0-------0-|
D|-0---0---0-3-0-0-3-0---0---0---0---0---0---0---0-3-0---|

D|-------------------------------------------------------|
A|-------------------------------------------------------|
F|-------------------------------------------------------|
C|-------------------------------------------------------|
G|---2---1-------------1---2---2---1---4---2---1-------1-|
D|-1---1---1-4-1-1-4-1---1---1---1---1---1---1---1-4-1---|

(After the break, distortion cuts in and it gets epic! Play all these riffs slowly)
D|----------------|
A|----------------|
F|----------------|
C|--17----15--15--|(4x)
G|--17----15--15--|
D|--15----13--13--|

D|----------------------------|
A|----------------------------|
F|----------------------------|
C|--14---12--12--15---17--17--|(4x)
G|--14---12--12--15---17--17--|
D|--12---10--10--13---15--15--|

  "I ride..."
D|-----------------------------------------------------|
A|-----------------------------------------------------|
F|-----------------------------------------------------|
C|-----------------------------------------------------|
G|-----------------------------------------------------|
D|-0-2-3-2-3-2-0-2-3-2-3-2-0-2-3-2-3-2-0-2-3-2-3-2-0-0-|
   . . . . . . . . . . . . . . . . . . . . . . . . . .

D|----------------------------|
A|----------------------------|
F|----------------------------|
C|--14---12--12--15---17--17--|(4x)
G|--14---12--12--15---17--17--|
D|--12---10--10--13---15--15--|

  "On that day..."
D|-----------------|
A|-----------------|
F|-----------------|
C|-----------------|
G|-----------------|
D|-0-2-3-2-3-2-0-0-|
   . . . . . . . .

D|----------------------------|
A|----------------------------|
F|----------------------------|
C|--14---12--12--15---17--17--|(4x)
G|--14---12--12--15---17--17--|
D|--12---10--10--13---15--15--|

  "By my father..."
D|-----------------------------------------------------|
A|-----------------------------------------------------|
F|-----------------------------------------------------|
C|-----------------------------------------------------|
G|-----------------------------------------------------|
D|-0-2-3-2-3-2-0-2-3-2-3-2-0-2-3-2-3-5-3-5-7-5-7-8-7-8-|
   . . . . . . . . . . . . . . . . . . . . . . . . . .

D|---------------------------------------|
A|---------------------------------------|
F|---------------------------------------|
C|--7------9---10---------7------5---3---|
G|--7------9---10---------7------5---3---|
D|--5------7---8------0---5------3---1---|
                      .

D|----------------------------------------------|
A|----------------------------------------------|
F|----------------------------------------------|
C|------7------9---10---------7------5---3---5--|
G|------7------9---10---------7------5---3---5--|
D|--0---5------7---8------0---5------3---1---3--|
    .                     .

D|-----------------------------------------------------|
A|-----------------------------------------------------|
F|-----------------------------------------------------|
C|--7---7--------7--------5--5---5--------5--------4---|
G|--7---7--------7--------5--5---5--------5--------4---|
D|--5---5--0--0--5--0--0--3--3---3--0--0--3--0--0--2---|
           .  .     .  .            .  .     .  .

D|-------------------------------------------------|
A|-------------------------------------------------|
F|-------------------------------------------------|
C|--------4---------4--------4--------4--------5~--|
G|--------4---------4--------4--------4--------5~--|
D|--2--2--2---2--2--2--2--2--2--2--2--2--2--2--3~--|
    .  .      .  .     .  .     .  .     .  .

(then it gets fast!)
D|---------------|
A|---------------|
F|-9'-7'-10'-12'-|
C|-9'-7'-10'-12'-|
G|-7'-5'-8'--10'-|
D|-0'-0'-0'--0'--|

D|-----------------------------|
A|-----------------------------|
F|--9~----------9--------------|
C|--9~----------9----------2---|
G|--7~---------------------2---|
D|--0~---------------------0---|

And that, as they say, is all, folks! Enjoy and stay metal! \m/

[*] - The chord progression is D, C, Eb, F then back to D.
Play the C chord either by playing the power chord on the 5th fret
(x577xx), or the fifth and octaves (as shown in the tabs).
After the break, the same progression is used, but it sounds higher in the song.
Play either higher down the fret-board (as shown in the tabs), or on the 5th string.
(D - 0799xx, C - x577xx, Eb - x81010xx, F - x101212xx) for best sound.
Play it slower the second time around.

/ - slide up
\ - slide down
~ - hold note
. - palm mute
' - tremolo pick
            
Submit corrections

comments powered by Disqus
↑ Back to top | Bathory Tabs for Revenge Of The Blood On Ice. Lyrics for acoustic guitar and electric guitar. 1 Tablatures and chords are parodies/interpretations of the original songs. You may use it for private study, scholarship, research or language learning purposes only