» » »

Raise The Dead Tabs (ver.1)

Artists:  A B C D E F G H I J K L M N O P Q R S T U V W X Y Z # 

Raise The Dead Tabs (ver.1)

Bathory
Rating:
0/5 (0 votes)

Hard to play? Try these video lessons and learn fast.
                                          Bathory – Raise the Dead

Black metal at it's finest. This is the only black metal band I enjoy! Check out my 

Tablature legend:
"~" - vibrato
"hb" - bend half-way
"fb" - bend fully
"/" - slide up

Intro:

Gtr I
e|-----------------------------------------------|
B|-----------------------------------------------|
G|-----------------------------------------------|
D|-----------------------------------------------|
A|-2--5-8------------------2--5-8----------------|
E|-0--3-6------------------0--3-6----------------|

Gtr I & Gtr II
e|---------------------------------------------|
B|---------------------------------------------|
G|---------------------------------------------|
D|---------------------------------------------|
A|-2--5-8---2--5-10--9---2--5-8---2--5-10--9---|
E|-0--3-6---0--3-8---7---0--3-6---0--3-8---7---|

e|---------------------------------------------|
B|---------------------------------------------|
G|---------------------------------------------|
D|---------------------------------------------|
A|-2--5-8---2--5-10--9---2--5-8---2--5-10--9---|
E|-0--3-6---0--3-8---7---0--3-6---0--3-8---7---|
  “AHHHHHHHHHHHHHHHHHHHHHHHHHHHHHHHHHHHHHH!!!”

Pre Verse:
                                                    (x2)
e|-----------------------------------------------------|
B|-----------------------------------------------------|
G|-----------------------------------------------------|
D|---9----5-/7----9----5--7----9----5-/7----9----5--7--|
A|-2-7--2-3-/5--2-7--2-3--5--2-7--2-3-/5--2-7--2-3--5--|
E|-0----0-------0----0-------0----0-------0----0-------|
 “Dust to Duuuuuusssssssst!”

Verse:
                                                    (x2)
e|-----------------------------------------------------|
B|-----------------------------------------------------|
G|-----------------------------------------------------|
D|---9----5-/7----9----5--7----9----5-/7----9----5--7--|
A|-2-7--2-3-/5--2-7--2-3--5--2-7--2-3-/5--2-7--2-3--5--|
E|-0----0-------0----0-------0----0-------0----0-------|
“I gasp for air, I scream for sight, and fight against torment & dread”
“Calling the vengeance & tear at the lid & promise to raise from the dead”

Chorus:                                         (x2)

e|-------------------------------------------------|
B|-------------------------------------------------|
G|-------------------------------------------------|
D|-------------------------------------------------|
A|-2--5-8—-8--2--5-10--9---2--5-8—-8--2--5-10--9---|
E|-0--3-6—-6--0--3-8---7---0--3-6--6--0--3-8---7---|
“Raise the Dead”           “Raise the Dead”
“Raise the Dead”

Pre Verse (x2)

Verse (x2)
“Black witch of beauty, all hell’s necromancers, give me the powers of hell”
”Mistress of curse, reapers & vultures, Demons stand up & chime the bell”

Chorus:(x2)
“Raise the Dead”
“Raise the Dead”
“Raise the Dead”

SOLO:

e|------------------------------------------------|
B|-5-4-2-5-4-2-5-4-2-5-4-2--4-5-6fb-6fb-6fb-5-4-3-|
G|------------------------------------------------|
D|------------------------------------------------|
A|------------------------------------------------|
E|------------------------------------------------|

e|-14-12-12-14-12-12-14-12-12-14-12-12-15-12-12-15-12-12-15-12-15-12-12-|
B|----------------------------------------------------------------------|
G|----------------------------------------------------------------------|
D|----------------------------------------------------------------------|
A|----------------------------------------------------------------------|
E|----------------------------------------------------------------------|

e|-14-12-12-14-12-12-14-12-12-14-12-12-13-12-12-13-12-12-13-12-13-12-12-|
B|----------------------------------------------------------------------|
G|----------------------------------------------------------------------|
D|----------------------------------------------------------------------|
A|----------------------------------------------------------------------|
E|----------------------------------------------------------------------|

e|-16fb--15-16fb--16-15-14--14-15-14-13-12-10-12-|
B|-----------------------------------------------|
G|-----------------------------------------------|
D|-----------------------------------------------|
A|-----------------------------------------------|
E|-----------------------------------------------|
                            “The legions bleed”

e|-22fb-19-22fb-19-22-22fb-19-22-19-17-19-20-22-|
B|----------------------------------------------|
G|----------------------------------------------|
D|----------------------------------------------|
A|----------------------------------------------|
E|----------------------------------------------|
   “WE SHA’LL RIIISE!!!”

Gtr I
e|-23fb~~~-22~~~~--22~23hb~~-22~~~~~~~~~~~~------------|
B|-----------------------------------------------------|
G|-----------------------------------------------------|
D|-----------------------------------------------------|
A|-----------------------------------------------------|
E|-----------------------------------------------------|End solo

Gtr II                                              (x1)
e|-----------------------------------------------------|
B|-----------------------------------------------------|
G|-----------------------------------------------------|
D|---9----5-/7----9----5--7----9----5-/7----9----5--7--|
A|-2-7--2-3-/5--2-7--2-3--5--2-7--2-3-/5--2-7--2-3--5--|
E|-0----0-------0----0-------0----0-------0----0-------|

Pre Verse (x1)

Verse (x2)
“Suddenly, powers comes from within, Muscle & Mind are filled with wrath”
“I burst out in frenzy, powers of hell, & break up the tomb & the dark”

Chorus (x2)
“Raise the Dead”
“Raise the Dead”
“Raise the Dead”

Outro                   (x8)
e|-------------------------|
B|-------------------------|
G|-------------------------|
D|-------------------------|
A|-2--5-8—-8--2--5-10--9---|
E|-0--3-6—-6--0--3-8---7---|
On the 3rd:
“UUUUUUUUUUUUUUUUUGGGGGGGGHHHHHHHH!!!!!!!”

ENJOY!!!!!
            
Hard to play? Try these video lessons and learn fast. | Correct




comments powered by Disqus
↑ Back to top | Tablatures and chords are parodies/interpretations of the original songs. You may use it for private study, scholarship, research or language learning purposes only