» » »

One Rode To Asa BaySolo Tabs (ver.1)

Artists:  A B C D E F G H I J K L M N O P Q R S T U V W X Y Z # 

One Rode To Asa BaySolo Tabs (ver.1)

Bathory
Rating:
0/5 (0 votes)

Hard to play? Try these video lessons and learn fast.
                One Rode to Asa Bay (SOLO)
BATHORY


Tuning E A D G B E

Legend:
/ \=slide
b=bend
"=tremolo note
h=hammer on
f=full bend
r=release


Part 1

------------------------------------------------------------------|
------------------------------------------------------------------|
------------------------------------------------------------------|
---10b----8b---6b---5b---8b---4r--2b------------------------------|
----------------------------------------5r-----4r------2----------|
------------------------------------------------------------------|


Part 2

--14"-----16"--17"---19"----17"----16"--17"------------------------|
----------------------------------------------16"b---17" f-17"f----|
-------------------------------------------------------------------|
-------------------------------------------------------------------|
-------------------------------------------------------------------|
-------------------------------------------------------------------|

----------------------------------------------------------|
--19h21h19h21h19h20h19------------------------------------|
----------------------------------------------------------|
----------------------------------------------------------|
----------------------------------------------------------|
----------------------------------------------------------|

Part 3

--21b--19b--17b--16b---19b---17b---16b-------14b----17b-14r-16b--14b--------------|
----------------------------------------16b---------------------------------------|
 ---------------------------------------------------------------------------------|
----------------------------------------------------------------------------------|
----------------------------------------------------------------------------------|
----------------------------------------------------------------------------------|
----------------------------------------------------------------------------------|
                                    **** Tremolo picking ****


-14h17h16h14h17h16h14-------------------------------------------------|
--------------------------17h16h14h16h1414----------------------------|
----------------------------------------------------------------------|
----------------------------------------------------------------------|
----------------------------------------------------------------------|
----------------------------------------------------------------------|

Part 4

---------------------------------------------------------------------|
---------------------------------------------------------------------|
--16f--14f-----13f-12f-----14f---13f--12f--------10f----10r----------|
------------------------------------------13r------------------------|
---------------------------------------------------------------------|
---------------------------------------------------------------------|
                                       **** Tremolo picking ****


Tab In Dedication to Quorthon - R.I.P
            
Hard to play? Try these video lessons and learn fast. | Correct




comments powered by Disqus
↑ Back to top | Tablatures and chords are parodies/interpretations of the original songs. You may use it for private study, scholarship, research or language learning purposes only