» » »

One Rode To Asa Bay Tabs (ver.2)

Artists:  A B C D E F G H I J K L M N O P Q R S T U V W X Y Z # 

One Rode To Asa Bay Tabs (ver.2)

Bathory
Rating:
0/5 (0 votes)

Hard to play? Try these video lessons and learn fast.
                (Intro)
			     one rode to asa bay - Bathory

Tuning:1/2 step down (eb Bb Gb Db Ab Eb)

eb|1-----3-----------------------------------------------------------------|
Bb|1-----3-----------------------------------------------------------------|
Gb|2-----3-----------3-----------------------------------------------------|
Db|3-----5----5--7---------------------------------------------------------|
Ab|3-----5-----------------------------------------------------------------|
Eb|1-----3-----------------------------------------------------------------|

eb|1-----3-----------------------------------------------------------------|
Bb|1-----3--------------3--------------------------------------------------|
Gb|2-----3-----------3-----------------------------------------------------|
Db|3-----5----5--7---------------------------------------------------------|
Ab|3-----5-----------------------------------------------------------------|
Eb|1-----3-----------------------------------------------------------------|

eb|1-----3--------------------1--------------------------------------------|
Bb|1-----3--------------------1--------------------------------------------|
Gb|2-----3--------------3-----2---2-3h-2-----------------------------------|
Db|3-----5----5--7---3--------3------------3--5----------------------------|
Ab|3-----5--------------------3--------------------------------------------|
Eb|1-----3--------------------1--------------------------------------------|
            
Hard to play? Try these video lessons and learn fast. | Correct




comments powered by Disqus
↑ Back to top | Tablatures and chords are parodies/interpretations of the original songs. You may use it for private study, scholarship, research or language learning purposes only