» » »

Bathory, Lake Of Fire Bass tabs (ver.1)

Artists:  A B C D E F G H I J K L M N O P Q R S T U V W X Y Z # 

Lake Of Fire Bass tabs (ver.1)

Bathory Tabs
Rating:
0/5 (0 votes)
Hard to play? Try these video lessons and learn fast.
                
LAKE OF FIRE (Bassline)
As recorded by Bathory
(From the 2001 Album DESTROYER OF WORLDS)

	

Words and Music by Quorthon for Bathory

Gtr I (D G C F) - 'Untitled'

 Intro
  Slow Metal Q=70
 4/4
  Gtr I
  Wx16
|---------|
|---------|
|---------|
|---------|


  H    E E Q    H    E E Q    H    E E +Q     H    E S S Q
|-------------|-------------|---------------|---------------|
|-------------|-------------|---------------|---------------|
|-------------|-------------|---------------|---------------|
|-0----0-0-0--|-4----4-4-4--|-0----0-0-(0)--|-4----4-4-4-4--|


 Verse I
  Q  E S S E E +Q     H    E E Q    H    E E +Q     H    E S S Q
|-------------------|-------------|---------------|--------------|
|-------------------|-------------|---------------|--------------|
|-------------------|-------------|---------------|--------------|
|-0--0-0-0-0-0-(0)--|-4----4-4-4--|-0----0-0-(0)--|-4----4-4-4-4-|


  H    E E +Q     H    E E +Q     H    E E +Q     H    E +T  T T T E E
|---------------|---------------|---------------|-----------------------|
|---------------|---------------|---------------|-----------------------|
|---------------|---------------|---------------|-----------------------|
|-0----0-0-(0)--|-4----4-4-(4)--|-0----0-0-(0)--|-4----4-(4)-4-4-4-4-4--|


  H    E S S S S E   S S S S S S S S S S S S S S S S
|------------------|---------------------------------|
|------------------|---------------------------------|
|------------------|---------------------------------|
|-0----0-0-0-0-0-0-|-0-0-0-0-0-0-0-0-0-0-0-0-0-1-1-1-|


  H    E S S E E   S S S S S S S S S S S S S S S S
|----------------|---------------------------------|
|----------------|---------------------------------|
|----------------|---------------------------------|
|-0----0-0-0-0-0-|-0-0-0-0-0-0-0-0-0-0-0-0-0-1-1-1-|


  H    E S S E E   S S S S S S S S S S S S S S S S
|----------------|---------------------------------|
|----------------|---------------------------------|
|----------------|---------------------------------|
|-0----0-0-0-0-0-|-0-0-0-0-0-0-0-0-0-0-0-0-0-1-1-1-|


  H    E E Q    S S S S S S S S S S S S S S E
|-------------|----------------------------------|
|-------------|----------------------------------|
|-------------|----------------------------------|
|-0----0-0-0--|-0-0-0-0-0-0-0-0-0-0-0-0-0-1-1----|


  E S S S S S S S S S S S S S S   S S S S S S S S S S S S S S S S
|-------------------------------|----------------------------------|
|-------------------------------|----------------------------------|
|-------------------------------|----------------------------------|
|-0-0-0-0-0-0-0-0-0-0-0-0-0-0-0-|-0-0-0-0-0-0-0-0-0-0-0-0-0-0-0-0--|


    H    E E +Q     H    E E +Q     H    E E +Q     H    E E +Q
||----------------|---------------|---------------|-----------------||
||o---------------|---------------|---------------|----------------o||
||o---------------|---------------|---------------|----------------o||
||--0----0-0-(0)--|-4----4-4-(4)--|-0----0-0-(0)--|-4----4-4-(4)----||


   Verse II
    H    E E +Q     H    E E +Q     H    E E +Q     H    E E +Q
||----------------|---------------|---------------|-----------------||
||o---------------|---------------|---------------|----------------o||
||o---------------|---------------|---------------|----------------o||
||--0----0-0-(0)--|-4----4-4-(4)--|-0----0-0-(0)--|-4----4-4-(4)----||


    H    E S S S S E   S S S S S S S S S S S S S S S S
||-------------------|---------------------------------|
||o------------------|---------------------------------|
||o------------------|---------------------------------|
||--0----0-0-0-0-0-0-|-0-0-0-0-0-0-0-0-0-0-0-0-0-1-1-1-|


  H    E S S E E   S S S S S S S S S S S S S S S S
|----------------|-------------------------------------||
|----------------|------------------------------------o||
|----------------|------------------------------------o||
|-0----0-0-0-0-0-|-0-0-0-0-0-0-0-0-0-0-0-0-0-1-1-1-----||


  E S S S S S S S S S S S S S S   H    E E +Q
|-------------------------------|---------------|
|-------------------------------|---------------|
|-------------------------------|---------------|
|-0-0-0-0-0-0-0-0-0-0-0-0-0-0-0-|-0----0-0-(0)--|


  S S S S S S S S S S S S S S S S   H    E E +Q
|---------------------------------|---------------|
|---------------------------------|---------------|
|---------------------------------|---------------|
|-0-0-0-0-0-0-0-0-0-0-0-0-0-1-1-1-|-0----0-0-(0)--|


  S S S S S S S S S S S S S S E   H    E E +Q
|-------------------------------|---------------|
|-------------------------------|---------------|
|-------------------------------|---------------|
|-0-0-0-0-0-0-0-0-0-0-0-0-0-1-1-|-0----0-0-(0)--|


  S S S S S S S S S S S S S S E   H    E E +Q
|-------------------------------|----------------|
|-------------------------------|----------------|
|-------------------------------|----------------|
|-0-0-0-0-0-0-0-0-0-0-0-0-0-1-1-|-0----0-0-(0)---|


  H    E E +Q     S S S S S S S S S S S S S S E
|---------------|-------------------------------|
|---------------|-------------------------------|
|---------------|-------------------------------|
|-0----0-0-(0)--|-0-0-0-0-0-0-0-0-0-0-0-0-0-1---|


   Solo
    H    E E +Q     H    E E +Q     H    E E +Q     H    E E +Q     3x
||----------------|---------------|---------------|-----------------||
||o---------------|---------------|---------------|----------------o||
||o---------------|---------------|---------------|----------------o||
||--0----0-0-(0)--|-4----4-4-(4)--|-0----0-0-(0)--|-4----4-4-(4)----||


 Outro
  E E +Q   E E +Q     E S S S S S S S S S S S S S S
|-------------------|-------------------------------|
|-------------------|-------------------------------|
|-------------------|-------------------------------|
|-0-0-(0)--0-0-(0)--|-0-0-0-0-0-0-0-0-0-0-0-0-0-0-0-|


  H    E E +Q     H    E E +Q
|---------------|-----------------|
|---------------|-----------------|
|---------------|-----------------|
|-0----0-0-(0)--|-4----4-4-(4)----|


                                  >
  H    E E +Q     H    E E +Q     W          +W
|---------------|---------------|----------|--------*|
|---------------|---------------|----------|--------*|
|---------------|---------------|----------|--------*|
|-0----0-0-(0)--|-4----4-4-(4)--|-0--------|-(0)----*|



Duration Legend
---------------
W - whole; H - half; Q - quarter; E - 8th; S - 16th; T - 32nd; X - 64th; a - acciaccatura
+ - note tied to previous; . - note dotted; .. - note double dotted
Uncapitalized letters represent notes that are staccato (1/2 duration)
Irregular groupings are notated above the duration line
Duration letters will always appear directly above the note/fret number it represents the
duration for.  Duration letters with no fret number below them represent rests.  Multi-
bar rests are notated in the form Wxn, where n is the number of bars to rest for.  Low
melody durations appear below the staff

Tablature Legend
----------------
 h   - hammer-on
 p   - pull-off
 b   - bend
 pb  - pre-bend
 r   - bend release (if no number after the r, then release immediately)
 /\  - slide into or out of (from/to "nowhere")
 s   - legato slide
 S   - shift slide
 - natural harmonic
[n]  - artificial harmonic
n(n) - tapped harmonic
 ~   - vibrato
 tr  - trill
 T   - tap
 TP  - trem. picking
 PM  - palm muting
\n/  - tremolo bar dip; n = amount to dip
 \n  - tremolo bar down
 n/  - tremolo bar up
/n\  - tremolo bar inverted dip
 =   - hold bend; also acts as connecting device for hammers/pulls
 <> - volume swell (louder/softer)
 x   - on rhythm slash represents muted slash
 o   - on rhythm slash represents single note slash

Misc Legend
-----------
 |  - bar
||  - double bar
||o - repeat start
o|| - repeat end
*|  - double bar (ending)
 :  - bar (freetime)
 $  - Segno
 &  - Coda
Tempo markers -  = BPM(8/16=s8/s16), where s8 = swing 8ths, s16 = swing 16ths
            

comments powered by Disqus
↑ Back to top | Bathory Bass for Lake Of Fire. Lyrics for acoustic guitar and electric guitar. Tablatures and chords are parodies/interpretations of the original songs. You may use it for private study, scholarship, research or language learning purposes only