» » »

Bathory, In Conspiracy With Satan Tabs (ver.1)

Artists:  A B C D E F G H I J K L M N O P Q R S T U V W X Y Z # 

In Conspiracy With Satan Tabs (ver.1)

Bathory Tabs
 Rating:
4/5 (4 votes)
In Conspiracy With Satan lessons Tabs too difficult? Try these video lessons and learn fast
1
                Bathory:In Conspiracy With Satan.

Another Bathory tab of a song from there first LP.

Riff 1
e:----------------------------------------------------------------|
B:----------------------------------------------------------------|
G:----------------------------------------------------------------|
D:-------------------------5--4------------------------5--4-------|
A:-99-7-99-7-99-7-99-7-99--3--2--7--99-7-99-7-99-7-99--3--2--7----|
E:-77-5-77-5-77-5-77-5-77--------5--77-5-77-5-77-5-77--------5----|

Riff 2
e:---------------------------------------------------------------|
B:---------------------------------------------------------------|
G:---------------------------------------------------------------|
D:---------------------------------------------------------------|
A:-9999999999-101010-9999999999-101010---------------------------|
E:-7777777777-8-8-8--7777777777-8-8-8----------------------------|

Riff 3
e:----------------------------------------------------------------|
B:----------------------------------------------------------------|
G:----------------------------------------------------------------|
D:----------------------------------------------------------------|
A:-44444444-5-44444444-5-44444444-5-5-5-5-------------------------|
E:-22222222-3-22222222-3-22222222-3-3-3-3-------------------------|

e:---------------------------------------------------------------|
B:---------------------------------------------------------------|
G:---------------------------------------------------------------|
D:-------------------------------------7777----------------------|
A:-44444444-5-44444444-5-44444444-5555-5555-99999999999999999-ect|
E:-22222222-3-22222222-3-22222222-3333------77777777777777777----|
                                               In Conspiracy With
Guitar Solo.

e:------------------------------------13b-13b-12--19191919191919-|
B:----------------12131213121312---------------------------------|
G:-5br-5656565---------------------------------------------------|
D:---------------------------------------------------------------|
A:---------------------------------------------------------------|
E:---------------------------------------------------------------|


e:-191919191919-17br-15br----------------------------------------|
B:---------------------------------------------------------------|
G:---------------------------------------------------------------|
D:---------------------------------------------------------------|
A:---------------------------------------------------------------|
E:---------------------------------------------------------------|

Riff 5 played under solo.
e:---------------------------------------------------------------|
B:---------------------------------------------------------------|
G:---------------------------------------------------------------|
D:---------------------------------------------------------------|
A:-4444444444444444444444444444-9-9-12--9-9-12--9-9-12--2--------|
E:-2222222222222222222222222222-7-7-10--7-7-10--7-7-10--0--------|

Last Riff after solo
e:----------------------------------------------------------------|
B:----------------------------------------------------------------|
G:----------------------------------------------------------------|
D:----------------------------------------------------------------|E
A:-9999999999-101010-9999999999-101010-x3-9999999999-10-9--7--9---|N
E:-7777777777-8-8-8--7777777777-8-8-8-----7777777777-8--7--5--7---|D


Riff 1 x 2

Riff 2 x 6

Riff 3 x 1

Riff 2 x 6

Riff 3 x 1

Riff 2 x 6

Riff 3 x 1

Riff 2 x 2

Solo plus Riff 5

Last Riff after solo.

Hope that's Ok.

Regards.
            
Submit corrections

comments powered by Disqus
↑ Back to top | Bathory Tabs for In Conspiracy With Satan. Lyrics for acoustic guitar and electric guitar. 1 Tablatures and chords are parodies/interpretations of the original songs. You may use it for private study, scholarship, research or language learning purposes only