» » »

Chariots Of Fire Tabs (ver.2)

Artists:  A B C D E F G H I J K L M N O P Q R S T U V W X Y Z # 

Chariots Of Fire Tabs (ver.2)

Bathory
Rating:
0/5 (0 votes)

Tabs too difficult? Try these video lessons and learn fast.
                E--------------------------------------------------15-17-15-17-15-17-19-18--|
B-------------------------------12-14-15b-----------------------------------|
G-------------------------12-14----------------14b--------------------------|
D-12-14-12-14-12-14-12-14------------------14b------------------------------|
A---------------------------------------------------------------------------|
E---------------------------------------------------------------------------|

E-17-19-18-17-19-18-22trem.&bend------------------|
B-------------------------------------------------|
G-------------------------------------------------|
D-------------------------------------------------|
A-------------------------------------------------|
E-------------------------------------------------|
            
Tabs too difficult? Try these video lessons and learn fast.




comments powered by Disqus
↑ Back to top | Tablatures and chords are parodies/interpretations of the original songs. You may use it for private study, scholarship, research or language learning purposes only