» » »

Bathory, Call From The Grave Tabs (ver.2)

Artists:  A B C D E F G H I J K L M N O P Q R S T U V W X Y Z # 

Call From The Grave Tabs (ver.2)

Bathory Tabs
 Rating:
4/5 (4 votes)
Call From The Grave lessons Tabs too difficult? Try these video lessons and learn fast
                Under The Sign Of The Black Mark
Bathory

Coventional Eb

Guitar 1 (Lead)
Guitar 2 (Rhythm)
Guitar 3 (Harmony)

Intro
Guitar 1&2
|------------------------|
|------------------------|
|------------------------|
|-6-6-6-------------88\6-|
|-4-4-4-6\5-5-5-5/6-66\4-|
|-------4\3-3-3-3/4------|

Verse
Guitar 1
|--------------------------------------------------------|  
|--------------------------------------------------------|   
|--------------------------------------------------------|  
|10-10-10-10/11-11-11-11-11\10-10-10-10-10\9--9--9--9--9-|     
|-8--8--8--8/-9--9--9--9--9\-8--8--8--8--8\7--7--7--7--7-|
|-8--8--8--8/-9--9--9--9--9\-8--8--8--8--8\7--7--7--7--7-|

Guitar 2
|--------------------------------------------------------|  
|--------------------------------------------------------|   
|--------------------------------------------------------|  
|10-10-10-10-10-10/11--11-\-10-10-10-10-10\9--9--9--9--9-|     
|-8--8--8--8--8--8/-9---9-\--8--8--8--8--8\7--7--7--7--7-|
|-8--8--8--8--8--8/-9---9-\--8--8--8--8--8\7--7--7--7--7-|

Repeat Into
Repeat Verse

Chorus
Guitar 1&2
|-----------------------------|     
|-----------------------------|    
|-----------------------------|
|-12-999-12-999-12-999-12-11--|    
|-10-777-10-777-10-777-10--9--|    
|-10-777-10-777-10-777-10--9--|

Solo 1
Guitar 1
|-10/12~~------10/12~~------10/12~~------10/12~~-----\10-12-14-15-15/17-|
|-----------------------------------------------------------------------|
|-----------------------------------------------------------------------|
|-----------------------------------------------------------------------|
|-----------------------------------------------------------------------|
|-----------------------------------------------------------------------|

|-14~----14-15-14-12--12-14-15-15/17---15-14-15-14~-14h15-12---12-14-15--|
|------------------------------------------------------------------------|
|------------------------------------------------------------------------|
|------------------------------------------------------------------------|
|------------------------------------------------------------------------|
|------------------------------------------------------------------------|

|-17-19-20-22--22b--22b--22b-22b-22b-22b--|
|-----------------------------------------|
|-----------------------------------------|
|-----------------------------------------|
|-----------------------------------------|
|-----------------------------------------|


Solo Rhythm
Guitar 2
|-------------------------------------|
|-------------------------------------|
|-------------------------------------|
|-9-9-9-9\7-7-7/9-9-9-5-5-5-5-4-4-6-6-|
|-7-7-7-7\5-5-5/7-7-7-3-3-3-3-2-2-4-4-|
|-------------------------------------|  

Solo 2  (harmony)

Solo Rhythm
Guitar 2
|------------------|
|------------------| 
|------------------|
|------------------|
|-2-2-3-3-2-2-3-3--|
|-0-0-1-1-0-0-1-1--|


Guitar 1&2
|------------------------|
|------------------------|
|------------------------|
|-6-6-6-------------88\6-|
|-4-4-4-6\5-5-5-5/6-66\4-|
|-------4\3-3-3-3/4------|

|--------------------------|
|--------------------------|
|--------------------------|
|-6-6-6---------------88\6-|
|-4-4-4-6\5-5-5/6-5/6-66\4-|
|-------4\3-3-3/4-3/4------|

|-------------------------|
|-------------------------|
|-------------------------|
|-6-6-6--------------88\6-|
|-4-4-4-x-6-6-x-5/6--66\4-|
|-------x-4-4-x-3/4-------|


|------------------------|
|------------------------|
|------------------------|
|-6-6-6-------------88\6-|
|-4-4-4-6\5-5-5-5/6-66\4-|
|-------4\3-3-3-3/4------|

Repeat Chorus
            
Submit corrections

comments powered by Disqus
↑ Back to top | Bathory Tabs for Call From The Grave. Lyrics for acoustic guitar and electric guitar. Tablatures and chords are parodies/interpretations of the original songs. You may use it for private study, scholarship, research or language learning purposes only