» » »

Bathory, Call From The Grave Tabs (ver.1)

Artists:  A B C D E F G H I J K L M N O P Q R S T U V W X Y Z # 

Call From The Grave Tabs (ver.1)

Bathory Tabs
 Rating:
3.7/5 (6 votes)
Call From The Grave lessons Tabs too difficult? Try these video lessons and learn fast
                "CALL FROM THE GRAVE"
music by BATHORY, lyrics by Quorthon



Riff 1 (starting riff)

e|----------------------|
B|----------------------|
G|----------------------|
D|4-444-------------66/5|
A|2-222-4-4-3-3-3-3-44/3|
E|------2-2-1-1-1-1-----|


Riff 2

1.Git.
e|-------------------------------|  
B|-------------------------------|   
G|-------------------------------|  
D|8-8-8-8/9-9-9-9\8-8-8-8\7-7-7-7|     
A|6-6-6-6/7-7-7-7\6-6-6-6\5-5-5-5|
E|6-6-6-6/7-7-7-7\6-6-6-6\5-5-5-5|

2.Git.
e|-------------------------------|  
B|-------------------------------|   
G|-------------------------------|  
D|8-8-8-8-8-8/9-9\8-8-8-8\7-7-7-7|         
A|6-6-6-6-6-6/7-7\6-6-6-6\5-5-5-5|
E|6-6-6-6-6-6/7-7\6-6-6-6\5-5-5-5|


Riff 3

e|---------------------------|     
B|---------------------------|    
G|---------------------------|   
D|10-777-10-777-10-777-10-999|    
A|-8-555--8-555--8-555--8-777|    
E|-8-555--8-555--8-555--8-777|


Riff 4

e|-----------------------------------------------|
B|-----------------------------------------------|
G|-----------------------------------------------|
D|7-7-7-7-7-7-7-7\5-5-5-5/7-7-7-7-------------5-5|
A|5-5-5-5-5-5-5-5\3-3-3-3/5-5-5-5-8-8-8-8-7-7-3-3|
E|--------------------------------6-6-6-6-5-5----|   


Riff 5
     A                    B
e|--------|          e|--------|
B|--------|          B|--------|  
G|--------|          G|--------|       
D|--------|          D|--------|  
A|2-2--3-3|          A|7-7--8-8|   
E|0-0--1-1|          E|5-5--6-6|




Solo 2

e|10---10-h13-p12-h12-p10-h10---10|
B|--------------------------------|

e|13---13-h17-p15-h15-p13-h13---13|
B|--------------------------------|

e|h10----------------------h10----------------|
B|----p13-h11-p10-h10----------p13-h11-p10-h10|

e|h17-p15-h13-p12-h12------h17-p15-h13-p12-h12-h13|
B|------------------------------------------------|


Abblauf:

Riff 1  x4
Riff 2  x6      
Riff 1  x4
Riff 2  x6       
Riff 3  x8
Riff 4  x4       glzt. Solo1
Riff 5  x16      glzt. Solo2
Riff 1  x4
Riff 3  x8
            
Submit corrections

comments powered by Disqus
↑ Back to top | Bathory Tabs for Call From The Grave. Lyrics for acoustic guitar and electric guitar. Tablatures and chords are parodies/interpretations of the original songs. You may use it for private study, scholarship, research or language learning purposes only