» » »

Bathory, Blood Fire Death Tabs (ver.1)

Artists:  A B C D E F G H I J K L M N O P Q R S T U V W X Y Z # 

Blood Fire Death Tabs (ver.1)

Bathory Tabs
 Rating:
4/5 (4 votes)
Blood Fire Death lessons Tabs too difficult? Try these video lessons and learn fast
                (Intro)
                      Bathory - Blood Fire Death Intro
                             (Standard Tuning)
1st Guitar
e|---------------------------------------------------------------------------|
B|-----------------10-------8------------------------------------------------|
G|-----9-------9------9-------9-----------10---------10--------7-------7-(10)|
D|---9---9---9---9------9-------9------10----10---10----10---7---7---7----(7)|
A|-7-------7--------------7-------7--8----------8----------8-------8---------|
E|---------------------------------------------------------------------------|

2nd Guitar
e|----------------------------------------------------------------------------|
B|----------------------------------------------------------------------------|
G|----------------------------------------------------------------------------|
D|-----2-------2-------2-------2----------3----------3---------0-------0--(3)-|
A|---2---2---2---2---2---2---2---2-----3-----3----3-----3----0---0---0----(0)-|
E|-0-------0-------0-------0---------1----------1----------1-------1----------|
            
Submit corrections

comments powered by Disqus
↑ Back to top | Bathory Tabs for Blood Fire Death. Lyrics for acoustic guitar and electric guitar. Tablatures and chords are parodies/interpretations of the original songs. You may use it for private study, scholarship, research or language learning purposes only