» » »

Baptised In Fire And Ice Tabs (ver.1)

Artists:  A B C D E F G H I J K L M N O P Q R S T U V W X Y Z # 

Baptised In Fire And Ice Tabs (ver.1)

Bathory
Rating:
3/5 (1 vote)

Hard to play? Try these video lessons and learn fast.
                Tuning:    D
COMENTS:


Key:
/ \=slide
p=pull off
h=hammer on
~=vibrato
·=muted
"=Thrill


----------------------------------------------------------------------

RIFF 1 [INTRO]
|-----------------------------------|
|-----------------------------------|
|-----------------------------------|
|-----------------------------------|
|-3-2-2-2-3-2-2-2-3-2-2-2-3-2-222---|
|-1-0-0-0-1-0-0-0-1-0-0-0-1-0-000---|
  · · · · · · · · · · · · · · ···


RIFF 1B
|------------------------|
|------------------------|
|------------------------|
|------------------------|
|-2232-2232-2232-2232223-|
|-0010-0010-0010-0010001-|
  ···· ···· ···· ·······

RIFF 2
|---------------------------------------------------------------|
|---------------------------------------------------------------|
|---------------------------------------------------------------|
|---------------------------------------------------------------|
|-10-12-----------10-12---8--10-12-12-10---151515-141414-121212-|
|-8--10---000-0-0-8--10---6--8--10-10-8----131313-121212-101010-|
          ··· · ·

RIFF3
|-----------------------|
|--6-666-666-666-666-4--|
|--7-777-777-777-777-5--|
|--5-555-555-555-555-3--|
|-----------------------|
|-----------------------|

RIFF4                    -Just before RIFF5-
|----------------------||----------------------|
|--3-3-3---------------||-44444-4/6------------|
|--4-4-4---------------||-55555-5/7------------|
|--2-2-2-AND REPEAT SO-||-33333-3/5------------|
|----------------------||----------------------|
|----------------------||----------------------|

RIFF5
|----------------------|
|--6-6-6---------------|
|--7-7-7---------------|
|--5-5-5-AND REPEAT SO-|
|----------------------|
|----------------------|

RIFF6
|------------------|
|------------------|
|------------------|
|------------------|
|--------1---------|
|-2--0-2---3-2~--2-|



RIFF 7
|----------------------|
|--7-7-7---------------|
|--8-8-8---------------|
|--6-6-6-AND REPEAT SO-|
|----------------------|
|----------------------|


RIFF 8
|--------------------------------------------------------------------|
|--------------------------------------------------------------------|
|--------------------------------------------------------------------|
|--------------------------------------------------------------------|
|-10-12----------10-12---8--10-12-12----------10-12---8--10-12-12-14-|
|-8--10--000-0-0-8--10---6--8--10-10--000-0-0-8--10---6--8--10-10-12-|
         ··· · ·                      ··· · ·

RIFF 9
|----------------------------------------------------------|
|-4-444-444-444-44/2-2-2-2/4-444-444-444-444-44/2-2-2-2/4--|
|-7-777-777-777-77/3-3-3-3/7-777-777-777-777-77/3-3-3-3/7--|
|-5-555-555-555-55/1-1-1-1/5-555-555-555-555-55/1-1-1-1/5--|
|----------------------------------------------------------|
|----------------------------------------------------------|

RIFF10 (NOt Sure about this part)
|----------------------|
|----------------------|
|----------------------|
|--5-5-5/7-7-7/8-8-8-8-|
|--3-3-3/5-5-5/6-6-6-6-|
|----------------------|

RIFF 11 (x3)     (x1)   - ENDING
|------------||--------|
|------------||--------|
|------------||--------|
|-3--22-2-3--||-22-2-1-|
|-3--22-2-3--||-22-2-1-|
|-1--00-0-1--||-00-0-0-|
     ·· ·       ·· ·

----------------------------------------------------------------------

Song Composition

RIFF 1  (x4)
RIFF 1B (x1)
RIFF 2  (x4)

RIFF 3 (X4)
RIFF 4 (x?) - repeats too many times
RIFF 5 (x?) - repeats too many times

RIFF 6 (x4)

RIFF 2 (x2)
RIFF 7 (x?) - Repeats too many times

RIFF 8 (x1)
RIFF 7 (x?) - Repeats too many times
RIFF 9 (x2)


RIFF 3 (X4)
RIFF 4 (x?) - repeats too many times
RIFF 3 (x5) 

RIFF 6 (x4)

RIFF 2 (x4)
RIFF 7 (x?) - Repeats too many times

RIFF 8 (x1)
RIFF 7 (x?) - Repeats too many times
RIFF 9 (x2)


RIFF 3 (X4)
 -- SOLO - NOT TABED

RIFF 10 (x4)

RIFF 2 (x2)
RIFF 7 (x?) - Repeats too many times

RIFF 8 (x1)
RIFF 7 (x?) - Repeats too many times
RIFF 9 (x2)

RIFF 2 (x4)
RIFF11 (x1)

--- Finally, RIFF 1 starts again and fades.
            
Hard to play? Try these video lessons and learn fast. | Correct




comments powered by Disqus
↑ Back to top | Tablatures and chords are parodies/interpretations of the original songs. You may use it for private study, scholarship, research or language learning purposes only