>
 >
Japanese Girl

Japanese Girl Guitar Tabs

Bates - Japanese Girl chords, tabs, tablatures, lyrics

Guitar lessons | Add/correct | Request | Top 50 tabs Artists:  A B C D E F G H I J K L M N O P Q R S T U V W X Y Z 0-9

Japanese Girl Guitar Tabs – Bates

CD, Sheet music, Poster

Do you like Japanese Girl? Share with your friends now
Tabs
------------------------------------------------------------
The Bates – Japanese Girl
------------------------------------------------------------

Tuning: Standard


/ slide


Intro:   2x

Part 1
e----------------------------------------------------|
B----------------------------------------------------|
G--------6-9-6---------------------------------------|
D---6-9---------9-6-4-6-4------------4--------4/6----|
A-----------------------------7-4--7----7--4---------|
E----------------------------------------------------|

Part 2
e------------------------------------------------------------|
B------------------------------------------------------------|
G--------6-9-6-----------------------------------------------|
D---6-9---------9-6-4-6-4------------4-----------4/6---6-----|
A-----------------------------7-4--7----7—2/4----------------|
E------------------------------------------------------------|

During second time the intro is played a second guitar plays these powerchords:

e----------------|
B----------------|
G----------6-----|
D-----6----6-----|
A-----6----4-----|
E-----4----------|

Verse:

e------------------------------------------------------------------------|
B------------------------------------------------------------------------|
G------------------------------------------------------------------------|
D------------------------------------------------------------------------|
A-------------------------------------2-2-2-2-0-0-0-0--------------------|
E----0-0-0-0-0-0-0-0-0-0-0-0-0-0-0-0--------------------0-0-0-0-0-0-0-0--|

2 x  During Verse

She said that she loved me,
never would go
OHO
OHONow I find I'm sitting here on my own
OHO
OHO

Bridge:

E

e-----------------------|
B-----------------------|
G------6-----4----------|
D------6-----4----------|      E
A------4-----2----------|
E-----------------------|
 (play this for every line of text)

"Was it something I've said or done
that makes her pack her bags up and run?
Could it be another she's found?"

e----------------|
B----------------|
G----6-----------|
D----6-----4-----|
A----4-----4-----|
E----------2-----|
“It's breaking up the happy home“

Refrain:
e----------------------|
B----------------------|
G----1----------4--1---|
D----2---4---4--4--2---|
A----2---4---4--2--2---|
E--------2---2---------|
“Mister can you tell me where my love has gone?
She's a Japanese Girl”

e---------------------|
B---------------------|
G----1----------4---6-|
D----2---4---4--4---6-|
A----2---4---4--2---4-|
E--------2---2--------|
“I woke up one morning and my love was gone
oh my Japanese Girl”

e----------------|
B----------------|
G--6-----4---2---|
D--6 -4--4---2---|
A--4--4--2---1---|
E-----2----------|
“oh I miss my Japanese Girl”

PLAY PART 1 OF THE INTRO

Verse:
People ask about her every day
OHO
OHO
Don't know what to tell them, what can I say?
OHO
OHO

Bridge:
If only she would write me or call
a word of explanation that's all
it would stop me climbing the wall
it's breaking up the happy home

Refrain:
Mister can you tell me where my love has gone?
She's a Japanese Girl
I woke up one morning and my love was gone
oh my Japanese Girl
oh I miss my Japanese Girl

Interlude:
e-------------------------------------------------|
B-------------------------------------------------|
G--------6-9-6-----------------------4------------|
D---6-9---------9-6-4-4h6-6-4---4--6---6-4--------|
A------------------------------------------7------|
E-------------------------------------------------|   2x

Bridge:
If only she would write me or call
a word of explanation that's all
it would stop me climbing the wall
it's breaking up the happy home

Refrain:
Mister can you tell me where my love has gone?
She's a Japanese Girl
I woke up one morning and my love was gone
oh my Japanese Girl

oh I miss my Japanese Girl (4x)


Have Fun with this great song, now you have the powerchords, figure out how to strum 
Mail me for criticisms or questions =)





Comments


Popular Bates tabs & chords
Beautiful Noise Chords
Bitter End Chords
Bse Chords
Der Einsame Chords
Do You Care Chords
Fox On The Run Chords
My Babys Gone Away Chords
The End Chords
A Real Cool Time Tabs
Here We Go Tabs


Song lyrics



↑ Back to top | Tablatures and chords are parodies/interpretations of the original songs. You may use it for private study, scholarship, research or language learning purposes only
© 2014 AZChords.com Contact us | Privacy policy | DMCA | Add/correct tabs | Request tabs | Top 50 tabs