» » »

Little Waltz Tabs (ver.1)

Artists:  A B C D E F G H I J K L M N O P Q R S T U V W X Y Z # 

Little Waltz Tabs (ver.1)

Basia Bulat
Rating:
4/5 (2 votes)

Hard to play? Try these video lessons and learn fast.
                                                                |
e----------------------------------------|
B-----4--4-----4----------3--3-----3-----|
G-----5--5-----5----------3--3-----3-----|
D-----------5-------------------3--------|
A--3--------------3----1--------------1--|
E----------------------------------------|

                                                |
e----------------------------------------|
B-----3--3-----3----------3--3-----------|
G-----3--3-----3----------3--3-----------|
D-----------3----------------------------|
A--0--------------0----------------0--1--|
E----------------------3--------3--------|

NOTE: There are a few minor variations throughout, but it generally sticks to this.

you and I, we make a grand salute
stare at eachother like lost little birds across the room
and I remember the way you looked
I learned how to dance, but I'd never shown it to you

my love,
I know I was wrong, but you know that you'll always be
my love
stay for a while while our leaves are still green
please, for me

I know I tried, but it's hard sometimes
the roots don't take, it takes a while
and you pull at the strings
but they're broken, it seems
the dance isn't over for me, no

my love,
I know I was wrong, but you know that you'll always be
my love
stay for a while while our leaves are still green
please, for me
            
Hard to play? Try these video lessons and learn fast. | Correct




comments powered by Disqus
↑ Back to top | Tablatures and chords are parodies/interpretations of the original songs. You may use it for private study, scholarship, research or language learning purposes only