>
 >
Wanderlust

Wanderlust Guitar Tabs

Baroness - Wanderlust chords, tabs, tablatures, lyrics

Guitar lessons | Add/correct | Request | Top 50 tabs Artists:  A B C D E F G H I J K L M N O P Q R S T U V W X Y Z 0-9

Wanderlust Guitar Tabs – Baroness

CD, Sheet music, Poster

Do you like Wanderlust? Share with your friends now
Tabs

Tuning: Drop A#


Guitar One (G1)
     E E E E E E E E   E E E E E E E E    E E E E E E E E
C ||-----0-----0-----|-0-----0-----0----|---0-----0-----0-|
G ||-----------------|------------------|-----------------|
D#||-4h5---4h5---4h5-|---4h5---4h5---4h-|-5---4h5---4h5---| x2
A#||-----------------|------------------|-----------------|
F ||-----------------|------------------|-----------------|
A#||-----------------|------------------|-----------------|



G1  E E E E E E E E   E E E E E E E E     E  E E E   E  E E  E   E E  E  E E  E  E E
C |-----0-----0-----|-0-----0-----0-----|----0-------0-------0-|------0-------0------|
G |-----------------|-------------------|----------------------|---------------------|
D#|-4h5---4h5---4h5-|---4h5---4h5---4h--|-5----4h5------4h5----|-4h5-----4h5-----4h5-|
A#|-----------------|-------------------|----------------------|---------------------|
F |-----------------|-------------------|----------------------|---------------------|
A#|-----------------|-------------------|----------------------|---------------------|
  |
G2| E E E E E E E E   E E E E E E E  E     E E  E  E E  E  E E    E  E Q   E  E  Q
C |-2h3-0-2h3-0-2h3-|-0-2h3-0-2h3-0-11h-|-12-0-11h12-0-11h12-0-|-11h12-0--11-12-11\-|
G |-----------------|-------------------|----------------------|--------------------|
D#|-----------------|-------------------|----------------------|--------------------|
A#|-----------------|-------------------|----------------------|--------------------|
F |-----------------|-------------------|----------------------|--------------------|
A#|-----------------|-------------------|----------------------|--------------------|



    E E E E E E E E   E E E E E E E E   E E E E E E E E   E E E E H
C |-----0-----0---0-|---0---0---0---0-|-----------0-----|------------------|
G |-------4h5---4---|-2---------------|-----0-----------|-------0----------|
D#|-4h5-------------|-----1---2---4---|-------4h5---4h2-|-----0------------|
A#|-----------------|-----------------|-4h5-------------|-5p4-----1--------|
F |-----------------|-----------------|-----------------|------------------|
A#|-----------------|-----------------|-----------------|------------------|
  |
  | E E E E E E E E   E E E E E E E E   E E E E E E E E   E E E E H
C |-----0-----0---0-|---0---0---0---0-|-----------0-----|------------------|
G |-------4h5---4---|-----------------|-----0-----------|-------0----------|
D#|-4h5-------------|-6---4---5---4---|-------4h5---4h2-|-----0------------|
A#|-----------------|-----------------|-4h5-------------|-5p4-----1--------|
F |-----------------|-----------------|-----------------|------------------|
A#|-----------------|-----------------|-----------------|------------------|


                                                        PM___________________|
     E E E  E  E E E E    E E E E E E E E   E E E E E E  S  S S S    S  S S S E E Q   Q 
C |--4h6-0-10h12-0------|---0-------0-----|-----------------------|----------------------|
G |---------------------|---------5-------|-----------------------|----------------------|
D#|----------------0h1h-|-2---2s4-----2p0-|-----0-----------------|----------------------|
A#|---------------------|-----------------|-------5h7-0-----------|----------------------|
F |---------------------|-----------------|-5h7---------10-10-7-7-|-10-10-7-7-7s5s7---7--|
A#|---------------------|-----------------|-----------------------|----------------------|
  |
  |                                                     PM___________________|
  |  E E E  E  E E E E    E E E E E E E E   E E E E E E  S  S S S    S  S S S E  E Q  Q 
C |--4h6-0-10h12-0------|---0-------0-----|-----------------------|----------------------|
G |---------------------|---------5-------|-----------------------|----------------------|
D#|----------------0h1h-|-2---2s4-----5p4-|-----0-----------------|----------------------|
A#|---------------------|-----------------|-------5h7-0-----------|----------------------|
F |---------------------|-----------------|-5h7---------10-10-7-7-|-10-10-7-7-7s10s7--7--|
A#|---------------------|-----------------|-----------------------|----------------------|



    E E E E E E E E   E E E E E E E E   E E E E E E E E   E E E E H
C |-----0-----0---0-|---0---0---0---0-|-----------0-----|------------------|
G |-------4h5---4---|-2---------------|-----0-----------|-------0----------|
D#|-4h5-------------|-----1---2---4---|-------4h5---4h2-|-----0------------|
A#|-----------------|-----------------|-4h5-------------|-5p4-----1--------|
F |-----------------|-----------------|-----------------|------------------|
A#|-----------------|-----------------|-----------------|------------------|
  |
  | E E E E E E E E   E E E E E E E E   E E E E E E E E   E E E E H
C |-----0-----0---0-|---0---0---0---0-|-----------0-----|------------------|
G |-------4h5---4---|-----------------|-----0-----------|-------0----------|
D#|-4h5-------------|-6---4---5---4---|-------4h5---4h2-|-----0------------|
A#|-----------------|-----------------|-4h5-------------|-5p4-----1--------|
F |-----------------|-----------------|-----------------|------------------|
A#|-----------------|-----------------|-----------------|------------------|


                                                        PM___________________|
     E E E  E  E E E E    E E E E E E E E   E E E E E E  S  S S S    S  S S S E E Q   Q 
C |--4h6-0-10h12-0------|---0-------0-----|-----------------------|-----------------------|
G |---------------------|---------5-------|-----------------------|-----------------------|
D#|----------------0h1h-|-2---2s4-----2p0-|-----0-----------------|-----------------------|
A#|---------------------|-----------------|-------5h7-0-----------|-----------------------|
F |---------------------|-----------------|-5h7---------10-10-7-7-|-10-10-7-7-7s5s7---7---|
A#|---------------------|-----------------|-----------------------|-----------------------|
  |
  |                                                     PM___________________|
  |  E E E  E  E E E E    E E E E E E E E   E E E E E E  S  S S S    S  S S S E  E  Q  Q 
C |--4h6-0-10h12-0------|---0-------0-----|-----------------------|-----------------------|
G |---------------------|---------5-------|-----------------------|-----------------------|
D#|----------------0h1h-|-2---2s4-----5p4-|-----0-----------------|-----------------------|
A#|---------------------|-----------------|-------5h7-0-----------|-----------------------|
F |---------------------|-----------------|-5h7---------10-10-7-7-|-10-10-7-7-7s10s11-11--|
A#|---------------------|-----------------|-----------------------|-----------------------|


                                                    PH_____________|
    E E E E E E E E   E E E E E E E E   E E E E E E E E   E E E E H
C |-----0-----0---0-|---0---0---0---0-|-----------0-----|------------------|
G |-------4h5---4---|-2---------------|-----0-----------|------------------|
D#|-4h5-------------|-----1---2---4---|-------4h5---4h2-|-----0-0----------|
A#|-----------------|-----------------|-4h5-------------|-5p4-----1--------|
F |-----------------|-----------------|-----------------|------------------|
A#|-----------------|-----------------|-----------------|------------------|
  |
  | E E E E E E E E   E E E E E E E E   E E E E E E E E   E E E E H
C |-----0-----0---0-|---0---0---0---0-|-----------0-----|------------------|
G |-------4h5---4---|-----------------|-----0-----------|-------0----------|
D#|-4h5-------------|-6---4---5---4---|-------4h5---4h2-|-----0------------|
A#|-----------------|-----------------|-4h5-------------|-5p4-----1--------|
F |-----------------|-----------------|-----------------|------------------|
A#|-----------------|-----------------|-----------------|------------------|


            |-3-|                                       PM___________________|
     E E E  E  Q E E E    E E E E E E E E   E E E E E E  S  S S S    S  S S S E E Q   Q 
C |--4h6-0-10h12-0------|---0-------0-----|-----------------------|----------------------|
G |---------------------|---------5-------|-----------------------|----------------------|
D#|----------------0h1h-|-2---2s4-----2p0-|-----0-----------------|----------------------|
A#|---------------------|-----------------|-------5h7-0-----------|----------------------|
F |---------------------|-----------------|-5h7---------10-10-7-7-|-10-10-7-7-7s5s7---7--|
A#|---------------------|-----------------|-----------------------|----------------------|
  |
  |                                                     PM___________________|
  |  E E E  E  E E E E    E E E E E E E E   E E E E E E  S  S S S    S  S S S E  E Q  Q 
C |--4h6-0-10h12-0------|---0-------0-----|-----------------------|----------------------|
G |---------------------|---------5-------|-----------------------|----------------------|
D#|----------------0h1h-|-2---2s4-----5p4-|-----0-----------------|----------------------|
A#|---------------------|-----------------|-------5h7-0-----------|----------------------|
F |---------------------|-----------------|-5h7---------10-10-7-7-|-10-10-7-7-7s10s7--7--|
A#|---------------------|-----------------|-----------------------|----------------------|



    E E E E E E E E   E E E E E E E E   E E E E E E E E   E E E E H
C |-----0-----0---0-|---0---0---0---0-|-----------0-----|------------------|
G |-------4h5---4---|-2---------------|-----0-----------|-------0----------|
D#|-4h5-------------|-----1---2---4---|-------4h5---4h2-|-----0------------|
A#|-----------------|-----------------|-4h5-------------|-5p4-----1--------|
F |-----------------|-----------------|-----------------|------------------|
A#|-----------------|-----------------|-----------------|------------------|
  |
  | E E E E E E E E   E E E E E E E E   E E E E E E E E   E E E E H
C |-----0-----0---0-|---0---0---0---0-|-----------0-----|------------------|
G |-------4h5---4---|-----------------|-----0-----------|-------0----------|
D#|-4h5-------------|-6---4---5---4---|-------4h5---4h2-|-----0------------|
A#|-----------------|-----------------|-4h5-------------|-5p4-----1--------|
F |-----------------|-----------------|-----------------|------------------|
A#|-----------------|-----------------|-----------------|------------------|


                                                        PM__________________|
     E E E  E  E E E E    E E E E E E E E   E E E E E E  S  S S S    S  S S S E E Q   Q 
C |--4h6-0-10h12-0------|---0-------0-----|-----------------------|----------------------|
G |---------------------|---------5-------|-----------------------|----------------------|
D#|----------------0h1h-|-2---2s4-----2p0-|-----0-----------------|----------------------|
A#|---------------------|-----------------|-------5h7-0-----------|----------------------|
F |---------------------|-----------------|-5h7---------10-10-7-7-|-10-10-7-7------------|
A#|---------------------|-----------------|-----------------------|-----------2s4-0------|
  |
  |                                                     PM__________________|
  |  E E E  E  E E E E    E E E E E E E E   E E E E E E  S  S S S    S  S S S E  E Q  Q 
C |--4h6-0-10h12-0------|---0-------0-----|-----------------------|----------------------|
G |---------------------|---------5-------|-----------------------|----------------------|
D#|----------------0h1h-|-2---2s4-----5p4-|-----0-----------------|----------------------|
A#|---------------------|-----------------|-------5h7-0-----------|----------------------|
F |---------------------|-----------------|-5h7---------10-10-7-7-|-10-10-7-7-7s10s7-----|
A#|---------------------|-----------------|-----------------------|----------------------|



    E E E E E E E E   E E E E H          
C |-2h3-0-3h5-0-5h7-|-0-7h8-0-7~--------|
G |-----------------|-------------------|
D#|-----------------|-------------------|
A#|-----------------|-------------------|
F |-----------------|-------------------|
A#|-----------------|-------------------|
  |
  | E E E E E E E E   E E E E H          
C |-----------------|-------------------|
G |-0h1-0-1h3-0-3h5-|-0-5h6-0-5~--------|
D#|-----------------|-------------------|
A#|-----------------|-------------------|
F |-----------------|-------------------|
A#|-----------------|-------------------|
 

Guitars 1 & 2
    E E E E E E E E   E E E E E E E E   S S E E E E E E E   S S E E E E E E E
C |-----------------|-----------------|-------------------|-------------------|
G |-----------------|-----------------|-------------------|-------------------|
D#|-----------------|-----------------|-------------------|-------------------|
A#|-2-2-2-2-2-2-2-2-|-2-2-2-2-2-2-2-2-|-2s5-5-5-5-5-5-5-5-|-5s8-8-8-8-8-8-8-8-|
F |-x-x-x-x-x-x-x-x-|-x-x-x-x-x-x-x-x-|-x---x-x-x-x-x-x-x-|-x---x-x-x-x-x-x-x-|
A#|-2-2-2-2-2-2-2-2-|-2-2-2-2-2-2-2-2-|-2s5-5-5-5-5-5-5-5-|-5s8-8-8-8-8-8-8-8-|



    S  S  E  E  E  E  E  E  E    S  S  E  E  E  E  E  E  E
C |---------------------------|----------------------------|
G |---------------------------|----------------------------|
D#|---------------------------|----------------------------| x2
A#|-8s10-10-10-10-10-10-10-10-|-10s12-12-12-12-12-12-12-12-|
F |-x-----x--x--x--x--x--x--x-|--x--x--x--x--x--x--x--x--x-|
A#|-8s10-10-10-10-10-10-10-10-|-10s12-12-12-12-12-12-12-12-|



    E E E Q   E E E   E E E Q   E Q      E  E  E  Q    E  E  E   E  E  E  Q    E  Q
C |-----------------|-----------------|------------------------|----------------------|
G |-----------------|-----------------|------------------------|----------------------|
D#|-7-9-9-7---9-9-7-|---9-9-7---9-9---|-11-12-12-11---12-12-11-|---12-12-11---12-12---|
A#|-7-9-9-7---9-9-7-|---9-9-7---9-9---|-11-12-12-11---12-12-11-|---12-12-11---12-12---|
F |-5-7-7-5---7-7-5-|---7-7-5---7-7---|--9-10-10--9---10-10--9-|---10-10--9---10-10---|
A#|-----------------|-----------------|------------------------|----------------------|



     E  E  E  Q    E  E  E   E  E  E  Q    E  Q     E E E E E E E E   E E E E E E E E
C |------------------------|----------------------|-----------------|-----------------|
G |------------------------|----------------------|-----------------|-----------------|
D#|-14-15-15-14---15-15-14-|---15-15-14---15-15---|-4-5-5-5-5-5-5-5-|-5-7-7-7-7-7-7-7-|
A#|-14-15-15-14---15-15-14-|---15-15-14---15-15---|-4-5-5-5-5-5-5-5-|-5-7-7-7-7-7-7-7-|
F |-12-13-13-12---13-13-12-|---13-13-12---13-13---|-2-3-3-3-3-3-3-3-|-3-5-5-5-5-5-5-5-|
A#|------------------------|----------------------|-----------------|-----------------|


    PM________________________________|
    E E E Q   E E E   E E E Q   E Q     E E E Q   E E E   E E E Q   E Q
C |-----------------|-----------------|-----------------|-----------------|
G |-----------------|-----------------|-----------------|-----------------|
D#|-----------------|-----------------|-----------------|-----------------|
A#|-----------------|-----------------|-----------------|-----------------|
F |-0-2-2-0---2-2-0-|---2-2-0---2-2---|-----------------|-----------------|
A#|-0-2-2-0---2-2-0-|---2-2-0---2-2---|-4-5-5-4---5-5-4-|---5-5-4---5-5---|



    E E E Q   E E E   E E E Q   E Q     E  E  E  E  E  E  E  E    E  E  E  E  E  E  E  E
C |-----------------|-----------------|------------------------|-------------------------|
G |-----------------|-----------------|------------------------|-------------------------|
D#|-----------------|-----------------|------12-12-------------|-------14-14-------------|
A#|-----------------|-----------------|-9-10-10-10-10-10-10-10-|-10-12-12-12-12-12-12-12-|
F |-7-8-8-7---8-8-7-|---8-8-7---8-8---|-9-10-10-10-10-10-10-10-|-10-12-12-12-12-12-12-12-|
A#|-7-8-8-7---8-8-7-|---8-8-7---8-8---|-9-10-10-10-10-10-10-10-|-10-12-12-12-12-12-12-12-|



(Switch to 7/4 time)

    H       Q.    E E E E E E E    E  E E E E  E E  E  E E E E  E E
C |-------------------0---0---0-|-11h12-0-9h0-11h0-11h12-0-9h0-11h0-|
G |---------------4h5-------4---|-----------------------------------|
D#|---------------------6-------|-----------------------------------|
A#|-----------------------------|-----------------------------------|
F |-----------------------------|-----------------------------------|
A#|-----------------------------|-----------------------------------|
  |
  | E E E E E E E E E E E E E E    E E  E E E E E   E E  E E E E E
C |-----0---0---0-----0---0---0-|-------0---0---0--------0---0---0--|
G |-----------------------------|-----------------------------------|
D#|-4h5---2---4---4h5---2---4---|--4h5----2---4-----4h5----2---4----|
A#|-----------------------------|-----------------------------------|
F |-----------------------------|-----------------------------------|
A#|-----------------------------|-----------------------------------|


    E E E E E E E E E E E E E E   E E E E S S E E E E E E E E E
C |-7h8-0-5h0-7h0-3h5-0-2h0-3h0-|-2h3-0-------3---0-------------|
G |-----------------------------|-------5-3s5---5---6h5-----5---|
D#|-----------------------------|-----------------------7h0---0-|
A#|-----------------------------|-------------------------------|
F |-----------------------------|-------------------------------|
A#|-----------------------------|-------------------------------|
  |
  | E E E E E E E E E E E E E E   E E E E E E E E  E E E E E E
C |-----0---0---0-----0---0---0-|-----0---0---0------0---0---0--|
G |-----------------------------|-------------------------------|
D#|-4h5---2---4---5h7---4---5---|-7h9---5---7---9h10---7---9----|
A#|-----------------------------|-------------------------------|
F |-----------------------------|-------------------------------|
A#|-----------------------------|-------------------------------|


    PM____________________________________________________________________________________
     E  E  E  E  E  E  E  E  E  E  E  E  E  E    E  E  E  E  E  E  E  E  E  E  E  E  E  E
C |-----------------5--------------------5----|-----------------5-------------------------|
G |--5--7--5--8--5--------5--7--5--8--5-------|--5--7--5--8--5-----------7-----8-----7----|
D#|-------------------------------------------|-----------------------7-----7-----7-----7-|
A#|-------------------------------------------|-------------------------------------------|
F |-------------------------------------------|-------------------------------------------|
A#|-------------------------------------------|-------------------------------------------|
  |                                                                                         x2
  | PM____________________________________________________________________________________
  |  E  E  E  E  E  E  E  E  E  E  E  E  E  E    E  E  E  E  E  E  E  E  E  E  E  E  E  E
C |----------------12-------------------12----|----------------12-------------------------|
G |----10----12-------------10----12----------|----10----12-------------------12----15----|
D#|-12----12----12-------12----12----12-------|-12----12----12-------11-14-11----11-------|
A#|-------------------------------------------|-------------------------------------------|
F |-------------------------------------------|-------------------------------------------|
A#|-------------------------------------------|-------------------------------------------|



     E  E  E     E E  E E  E  E  E  E E   E  E    E  E  E  E E  E E  E E E  E E  E E
C |--------------------------------------------|-------------------------0----0-12---|
G |-------------------5-------------------9----|--7--7--7--8----7----------10--------|
D#|-----6-------------6-------------6p5--------|--7--7--7--7----7----7s9-------------|
A#|--8-----8b9b8-8-8-------8--6--6--6----------|--7--7--7--7----7--------------------|
F |--------------------------------------------|-------------------------------------|
A#|--------------------------------------------|-------------------------------------|
  |
  |  E  E  E    E  E  E E  E  E  E  E  E  E  E    E  E  E  E E  E E  E E E  E E Q
C |------------------18------------------16----|-------------------------------------|
G |----14------16---------14-17----14----------|-10-10-10-12---10---10-8-8-10---8----|
D#|-15----15------15------------13----13-------|-11-11-11-11---11---11-9-9-10---9\---|
A#|--------------------------------------------|-------------------------------------|
F |--------------------------------------------|-------------------------------------|
A#|--------------------------------------------|-------------------------------------|



    E  E E  E E E E E  E E  E E  E E   E  E E  E E E E E  E E  E E  E E
C |----------------------------------|----------------------------------|
G |-9h10-0-12-0---0-9h10-0-12-0-13-0-|-9h10-0-12-0---0-9h10-0-12-0-13-0-|
D#|-------------9--------------------|-------------9--------------------|
A#|----------------------------------|----------------------------------|
F |----------------------------------|----------------------------------|
A#|----------------------------------|----------------------------------|
  |
  | E E  E  E E E E E E  E  E E  E E   E E  E  E E E E E E  E  E E  E E
C |------0----0---0------0----0----0-|------0----0---0------0----0----0-|
G |----------------------------------|----------------------------------|
D#|-1h2-----4-------1h2-----4----5---|-1h2-----4-------1h2-----4----5---|
A#|-------------2--------------------|-------------2--------------------|
F |----------------------------------|----------------------------------|
A#|----------------------------------|----------------------------------|


    E E E E E E E E E E E E E E   E E E E S S E E E E E E E E E
C |-7h8-0-5h0-7h0-3h5-0-2h0-3h0-|-2h3-0-------3---0-------------|
G |-----------------------------|-------5-3s5---5---6h5-----5---|
D#|-----------------------------|-----------------------7h0---0-|
A#|-----------------------------|-------------------------------|
F |-----------------------------|-------------------------------|
A#|-----------------------------|-------------------------------|
  |
  | E E E E E E E E E E E E E E   E E E E E  E E E  E E E E E E
C |-----0---0---0-----0---0---0-|-----0---0----0------0---0---0-|
G |-----------------------------|-------------------------------|
D#|-4h5---2---4---5h7---4---5---|-7h9---5----7---9h10---7---9---|
A#|-----------------------------|-------------------------------|
F |-----------------------------|-------------------------------|
A#|-----------------------------|-------------------------------|


(Switch to 6/4 time)

     E E E  E E E  E E E  E E E   W                H
C |------0------0------0------0-|-----------------------------|
G |-----------------------------|-----------------------------|
D#|--4h5----4h5----4h5----4h5---|-----------------------------|
A#|-----------------------------|-----------------------------|
F |-----------------------------|-----------------------------|
A#|-----------------------------|-----------------------------|
  |
  | E  E E E  E E E  E E E  E E   E  E E  E E  E H        E E 
C |------0------0------0------0-|-------------12--------------|
G |-----------------------------|-8-10h8-12h8---------------8-|
D#|-9h10---9h10---9h10---9h10---|-----------------------------|
A#|-----------------------------|-----------------------------|
F |-----------------------------|-----------------------------|
A#|-----------------------------|-----------------------------|



    H         W	                W (back to 4/4 time)
C |-----------0---------------|---------------------------|
G |-----------3---------------|---------------------------|
D#|-----------0---------------|---------------------------|
A#|-----------4---------------|---------------------------|
F |-----------5---------------|---------------------------|
A#|---------------------------|---------------------------|
  |
  |  E E  E E W	                W
C |-----------0---------------|---------------------------|
G |-10h8-12h8-----------------|---------------------------|
D#|---------------------------|---------------------------|
A#|---------------------------|---------------------------|
F |---------------------------|---------------------------|
A#|---------------------------|---------------------------|



    E E E   Q    Q.    W           E E E   E E  E  E  E   W
C |--------------0---|-----------|----------------------|-----------|
G |---------0--------|-----------|--------------------3-|-----------|
D#|------------------|-----------|-4h2h0--------2-----2-|-----------|
A#|------------------|-----------|---------2h4-----4--0-|-----------|
F |-0h1h2------------|-----------|----------------------|-----------|
A#|------------------|-----------|----------------------|-----------|
  |
  | E  E E  E E  Q.    W           E  E E  E E  E  E  E   W
C |-------------12---|-----------|-------------12-------|-----------|
G |-8-10h8-12h8------|-----------|-8-10h8-12h8----12-10-|-----------|
D#|------------------|-----------|----------------------|-----------|
A#|------------------|-----------|----------------------|-----------|
F |------------------|-----------|----------------------|-----------|
A#|------------------|-----------|----------------------|-----------|



    H        E E E  E   E  E E  E  E  E  E E   E E E   Q    Q.    W
C |-------------------|----------------------|--------------0---|-----------|
G |------------3----3-|----3----3--3--3--3---|---------0--------|-----------|
D#|------------2----2-|----2----2--2--2--2---|------------------|-----------|
A#|------------0----0-|----0----0--0--0--0---|------------------|-----------|
F |-------------------|----------------------|-0h1h2------------|-----------|
A#|-------------------|----------------------|------------------|-----------|
  |
  | H        E E E  E   E  E E  E  E  E  E E   E  E E  E E  Q.    W
C |-------------------|----------------------|-------------12---|-----------|
G |-----------10---10-|---10---10--x--x--x---|-8-10h8-12h8------|-----------|
D#|-----------11---11-|---11---11-11-11-11---|------------------|-----------|
A#|-------------------|----------------------|------------------|-----------|
F |-------------------|----------------------|------------------|-----------|
A#|-------------------|----------------------|------------------|-----------|



    E E E   E E  E  E  E   W           W           W
C |----------------------|-----------|-----------|-----------|
G |--------------------3-|-----------|-----------|-----------|
D#|-4h2h0--------2-----2-|-----------|-----------|-----------|
A#|---------2h4-----4--0-|-----------|-----------|-----------|
F |----------------------|-----------|-----------|-----------|
A#|----------------------|-----------|-----------|-----------|
  |
  | E  E E  E E  E  E  E   W           W           W
C |-------------12-------|-----------|-----------|-----------|
G |-8-10h8-12h8----12-10-|-----------|-----------|-----------|
D#|----------------------|-----------|-----------|-----------|
A#|----------------------|-----------|-----------|-----------|
F |----------------------|-----------|-----------|-----------|
A#|----------------------|-----------|-----------|-----------|



    E E E   Q    Q.    W           E E E   E E  E  E  E   W
C |--------------0---|-----------|----------------------|-----------|
G |---------0--------|-----------|--------------------3-|-----------|
D#|------------------|-----------|-4h2h0--------2-----2-|-----------|
A#|------------------|-----------|---------2h4-----4--0-|-----------|
F |-0h1h2------------|-----------|----------------------|-----------|
A#|------------------|-----------|----------------------|-----------|
  |
  | E  E E  E E  Q.    W           E  E E  E E  E  E  E   W
C |-------------12---|-----------|-------------12-------|-----------|
G |-8-10h8-12h8------|-----------|-8-10h8-12h8----12-10-|-----------|
D#|------------------|-----------|----------------------|-----------|
A#|------------------|-----------|----------------------|-----------|
F |------------------|-----------|----------------------|-----------|
A#|------------------|-----------|----------------------|-----------|



    E E E   Q   Q.     W           E E E   Q   Q  E   W
C |-------------0----|-----------|-------------0----|-----------------|
G |---------0--------|-----------|---------0------3-|-----------------|
D#|------------------|-----------|----------------2-|-----------------|
A#|------------------|-----------|----------------0-|-----------------|
F |-0h1h2------------|-----------|-0h1h2------------|-----------------|
A#|------------------|-----------|------------------|-----------------|
  |
  | E E E   Q   Q.     W           E E E   Q   Q  E   E E E E E E Q
C |-------------0----|-----------|-------------0----|-----------------|
G |---------0--------|-----------|---------0------5-|---5b7b5b7b5-----|
D#|------------------|-----------|------------------|-----------------|
A#|------------------|-----------|-0h1h2------------|-----------------|
F |-0h1h2------------|-----------|------------------|-----------------|
A#|------------------|-----------|------------------|-----------------|



    E E E   Q   Q.     W           E E E   Q   Q  E   W
C |-------------0----|-----------|-------------0-----|-----------|
G |---------0--------|-----------|---------0------3--|-----------|
D#|------------------|-----------|----------------2--|-----------|
A#|------------------|-----------|-------------------|-----------|
F |-0h1h2------------|-----------|-0h1h2-------------|-----------|
A#|------------------|-----------|-------------------|-----------|
  |
  | E E E   Q   Q.     W           E E E   Q   Q  E   W
C |-------------0----|-----------|-------------0-----|-----------|
G |---------0--------|-----------|---------0-----(0)-|-----------|
D#|------------------|-----------|----------------0--|-----------|
A#|------------------|-----------|-0h1h2-------------|-----------|
F |-0h1h2------------|-----------|-------------------|-----------|
A#|------------------|-----------|-------------------|-----------|



    E E E   Q   Q.     W           E E E   Q   Q  E   W
C |-------------0----|-----------|-------------0----|----------------|
G |---------0--------|-----------|---------0------3-|----------------|
D#|------------------|-----------|----------------2-|----------------|
A#|------------------|-----------|----------------0-|----------------|
F |-0h1h2------------|-----------|-0h1h2------------|----------------|
A#|------------------|-----------|------------------|----------------|
  |
  | E E E   Q   Q.     W           E E E   Q   Q  E   Q.   E E E Q
C |-------------0----|-----------|-------------0----|------5---------|
G |---------0--------|-----------|---------0------5-|-b7-----7b5-----|
D#|------------------|-----------|------------------|------------7---|
A#|------------------|-----------|-0h1h2------------|----------------|
F |-0h1h2------------|-----------|------------------|----------------|
A#|------------------|-----------|------------------|----------------|



    E E E   Q   Q.     W           E E E   Q   Q  E   W
C |-------------0----|-----------|-------------0----|-----------|
G |---------0--------|-----------|---------0------3-|-----------|
D#|------------------|-----------|----------------2-|-----------|
A#|------------------|-----------|------------------|-----------|
F |-0h1h2------------|-----------|-0h1h2------------|-----------|
A#|------------------|-----------|------------------|-----------|
  |
  | E E E   Q   Q.     W           E E E   Q   Q  E   W
C |-------------0----|-----------|-------------0----|-----------|
G |---------0--------|-----------|---------0--------|-----------|
D#|------------------|-----------|------------------|-----------|
A#|------------------|-----------|-0h1h2----------5-|-----------|
F |-0h1h2------------|-----------|------------------|-----------|
A#|------------------|-----------|------------------|-----------|



    E  E E  E E  Q.     W           E  E E  E E  E  E  E   W
C |--------------7----|-----------|--------------7-------|-----------|
G |-5--7h5--8h5-------|-----------|-5--7h5--8h5-----8--7-|-----------|
D#|-------------------|-----------|----------------------|-----------|
A#|-------------------|-----------|----------------------|-----------|
F |-------------------|-----------|----------------------|-----------|
A#|-------------------|-----------|----------------------|-----------|
  |                                                                     x4
  | E  E E  E E  Q.     W           E  E E  E E  E  E  E   W
C |-------------12----|-----------|-------------12-------|-----------|
G |-8-10h8-12h8-------|-----------|-8-10h8-12h8----12-10-|-----------|
D#|-------------------|-----------|----------------------|-----------|
A#|-------------------|-----------|----------------------|-----------|
F |-------------------|-----------|----------------------|-----------|
A#|-------------------|-----------|----------------------|-----------|



    E E E E E E E E   E E E E E E E E   E E E E E E E E   E E E E H
C |-----0-----0---0-|---0---0---0---0-|-----------0-----|------------------|
G |-------4h5---4---|-2---------------|-----0-----------|-------0----------|
D#|-4h5-------------|-----1---2---4---|-------4h5---4h2-|-----0------------|
A#|-----------------|-----------------|-4h5-------------|-5h4-----1--------|
F |-----------------|-----------------|-----------------|------------------|
A#|-----------------|-----------------|-----------------|------------------|
  |
  | E E E E E E E E   E E E E E E E E   E E E E E E E E   E E E E E E E E
C |-----------------|-----------------|-----------------|-----------------|
G |-----------------|-----------------|-----------------|-----------------|
D#|-----------------|-----------------|-----------------|-----------------|
A#|-2-2-2-2-2-2-2-2-|-2-2-2-2-2-2-2-2-|-5-5-5-5-5-5-5-5-|-5-5-5-5-5-5-5-5-|
F |-2-2-2-2-2-2-2-2-|-2-2-2-2-2-2-2-2-|-5-5-5-5-5-5-5-5-|-5-5-5-5-5-5-5-5-|
A#|-2-2-2-2-2-2-2-2-|-2-2-2-2-2-2-2-2-|-5-5-5-5-5-5-5-5-|-5-5-5-5-5-5-5-5-|



    E E E  E  E E E E    E E E E E E E E  
C |-4h6-0-10h12-0-----|----0-------0-----|
G |-------------------|----------5-------|
D#|---------------0h1-|-h2---2s4-----5h4-|
A#|-------------------|------------------|
F |-------------------|------------------|
A#|-------------------|------------------|
  |
  | E E E  E  E E E E    E E E E E E E E
C |-------------------|------------------|
G |-------------------|------------------|
D#|-------------------|------------------|
A#|-8-8-8--8--8-8-8-8-|--8-8-8-8-8-8-8-8-|
F |-8-8-8--8--8-8-8-8-|--8-8-8-8-8-8-8-8-|
A#|-8-8-8--8--8-8-8-8-|--8-8-8-8-8-8-8-8-|


                      PM___________________|
     E E  E   E E  E  S  S S S    S  S S  S E E Q     Q
C |----------------------------|-----------------------------|
G |----------------------------|-----------------------------|
D#|-------0--------------------|-----------------------------|
A#|-----------5h7--0-----------|-----------------------------|
F |--5h7-------------10-10-7-7-|-10-10-7--7-7s5s7-----7------|
A#|----------------------------|-----------------------------|
  |
  |  E  E  E  E  E  E   E   E     E    E    E  E  E  E  E  E
C |----------------------------|-----------------------------|
G |----------------------------|-----------------------------|
D#|----------------------------|-----------------------------|
A#|-10-10-10-10-10-10--10--10--|-12---12---12-12-12-12-12-12-|
F |-10-10-10-10-10-10--10--10--|-12---12---12-12-12-12-12-12-|
A#|-10-10-10-10-10-10--10--10--|-12---12---12-12-12-12-12-12-|





    E E E E E E E E   E E E E E E E E   E E E E E E E E   E E E E H
C |-----0-----0---0-|---0---0---0---0-|-----------0-----|------------------|
G |-------4h5---4---|-2---------------|-----0-----------|-------0----------|
D#|-4h5-------------|-----1---2---4---|-------4h5---4h2-|-----0------------|
A#|-----------------|-----------------|-4h5-------------|-5p4-----1--------|
F |-----------------|-----------------|-----------------|------------------|
A#|-----------------|-----------------|-----------------|------------------|
  |
  | E E E E E E E E   E E E E E E E E   E E E E E E E E   E E E E H
C |-----0-----0---0-|---0---0---0---0-|-----------0-----|------------------|
G |-------4h5---4---|-----------------|-----0-----------|-------0----------|
D#|-4h5-------------|-6---4---5---4---|-------4h5---4h2-|-----0------------|
A#|-----------------|-----------------|-4h5-------------|-5p4-----1--------|
F |-----------------|-----------------|-----------------|------------------|
A#|-----------------|-----------------|-----------------|------------------|


                                                        PM________
     E E E  E  E E E E    E E E E E E E E   E E E E E E  S  S S S
C |--4h6-0-10h12-0------|---0-------0-----|-----------------------|
G |---------------------|---------5-------|-----------------------|
D#|----------------0h1h-|-2---2s4-----2p0-|-----0-----------------|
A#|---------------------|-----------------|-------5h7-0-----------|
F |---------------------|-----------------|-5h7---------10-10-7-7-|
A#|---------------------|-----------------|-----------------------|
  |
  |                                                     PM________
  |  E E E  E  E E E E    E E E E E E E E   E E E E E E  S  S S S
C |--4h6-0-10h12-0------|---0-------0-----|-----------------------|
G |---------------------|---------5-------|-----------------------|
D#|----------------0h1h-|-2---2s4-----5p4-|-----0-----------------|
A#|---------------------|-----------------|-------5h7-0-----------|
F |---------------------|-----------------|-5h7---------10-10-7-7-|
A#|---------------------|-----------------|-----------------------|


   ___________________________________________________________________________________
     S  S S S  S  S S S  S  S S S  S  S S S    S  S S S  S  S S S  S  S S S  S  S S S
C |-----------------------------------------|-----------------------------------------|
G |-----------------------------------------|-----------------------------------------|
D#|-----------------------------------------|-----------------------------------------|
A#|-----------------------------------------|-----------------------------------------|
F |-10-10-7-7-10-10-7-7-10-10-7-7-10-10-7-7-|-10-10-7-7-10-10-7-7-10-10-7-7-10-10-7-7-|
A#|-----------------------------------------|-----------------------------------------|
  |
  |___________________________________________________________________________________
  |  S  S S S  S  S S S  S  S S S  S  S S S    S  S S S  S  S S S  S  S S S  S  S S S
C |-----------------------------------------|-----------------------------------------|
G |-----------------------------------------|-----------------------------------------|
D#|-----------------------------------------|-----------------------------------------|
A#|-----------------------------------------|-----------------------------------------|
F |-10-10-7-7-10-10-7-7-10-10-7-7-10-10-7-7-|-10-10-7-7-10-10-7-7-10-10-7-7-10-10-7-7-|
A#|-----------------------------------------|-----------------------------------------|


   __________________________________________________________________________________|
     S  S S S  S  S S S  S  S S S  S  S S S    S  S S S  S  S S S  S  S S S  S  S S S
C |-----------------------------------------|-----------------------------------------|
G |-----------------------------------------|-----------------------------------------|
D#|-12-12-9-9-12-12-9-9-12-12-9-9-12-12-9-9-|-12-12-9-9-12-12-9-9-12-12-9-9-12-12-9-9-|
A#|-----------------------------------------|-----------------------------------------|
F |-----------------------------------------|-----------------------------------------|
A#|-----------------------------------------|-----------------------------------------|
  |
  |__________________________________________________________________________________|
  |  S  S S S  S  S S S  S  S S S  S  S S S    S  S S S  S  S S S  S  S S S  S  S S S
C |-----------------------------------------|-----------------------------------------|
G |-----------------------------------------|-----------------------------------------|
D#|-----------------------------------------|-----------------------------------------|
A#|-----------------------------------------|-----------------------------------------|
F |-10-10-7-7-10-10-7-7-10-10-7-7-10-10-7-7-|-10-10-7-7-10-10-7-7-10-10-7-7-10-10-7-7-|
A#|-----------------------------------------|-----------------------------------------|



     Q   Q   Q    Q      W                  W
C |-------------------|-------------------|-------------------||
G |-------------------|-------------------|-------------------||
D#|-13------11---12---|--9----------------|-------------------||
A#|-------------------|-------------------|-------------------||
F |-------------------|-------------------|-------------------||
A#|-------------------|-------------------|-------------------||
  |
  |  Q   Q   Q    Q      W                  W
C |-------------------|-------------------|-------------------||
G |-------------------|-------------------|-------------------||
D#|-------------------|-------------------|-------------------||
A#|----------9---10---|-10----------------|-------------------||
F |--7----------------|-------------------|-------------------||
A#|-------------------|-------------------|-------------------||



| /  slide up
| \  slide down
| h  hammer-on
| p  pull-off
| ~  vibrato
| +  harmonic
| x  Mute note





Comments


Popular Baroness tabs & chords
Swollen And Halo 2 Bass Tabs
Sleep That Steels The Eye Chords
Bullhead's Lament Tabs
Bullheads Lament 1 Tabs
Grad Tabs
Grad 2 Tabs
Jake Leg Tabs
Ogeechee Hymnal Tabs
Rays On Pinion Tabs
Stretchmarker Intro Tabs


Song lyrics



↑ Back to top | Tablatures and chords are parodies/interpretations of the original songs. You may use it for private study, scholarship, research or language learning purposes only
© 2014 AZChords.com Contact us | Privacy policy | DMCA | Add/correct tabs | Request tabs | Top 50 tabs