>
 >
Swollen And Halo

Swollen And Halo Bass Tabs

Baroness - Swollen And Halo chords, tabs, tablatures, lyrics

Guitar lessons | Add/correct | Request | Top 50 tabs Artists:  A B C D E F G H I J K L M N O P Q R S T U V W X Y Z 0-9

Swollen And Halo Bass Tabs – Baroness

CD, Sheet music, Poster

Do you like Swollen And Halo? Share with your friends now
Bass TabsBass Tabs v2

So this is the bass part for this song. I am still unsure what tuning they
use exactly so I've tabbed it in 5 string tuning, it seems to make the most 
sense. I have the song tabbed out in Drop C and A# tunings as well as 

Enjoy :)                           

G||-------|-------|-------|-------|-------|-------|-------|
D||-------|-------|-------|-------|-------|-------|-------|
A||-------|-------|-------|-------|-------|-------|-------|
E||-------|-------|-------|-------|-------|-------|-------|
B||-------|-------|-------|-------|-------|-------|-------|


  Q    E  E  Q    E  E     Q    E  E  Q    E  E     Q    E  E  Q    E  E   
------------------------|------------------------|------------------------|
------------------------|------------------------|------------------------|
------------------------|------------------------|--6-------6--6-------5--|
--3-------3--3-------3--|--3-------3--3-------3--|------------------------|
------------------------|------------------------|------------------------|


  Q    E  E  Q    E  E     Q    E  E  Q    E  E     Q    E  E  Q    E  E   
------------------------|------------------------|------------------------|
------------------------|------------------------|------------------------|
--3-------3--3----------|------------------------|------------------------|
---------------------6--|--3-------3--3-------3--|--3-------3--3-------3--|
------------------------|------------------------|------------------------|


  E  E  E  E  E  E  E  E     Q    E  E  E  E  E  E   
--------------------------|-------------------------|
--------------------------|-------------------------|
--6-----6-----6--------6--|--3-------3--3-----------|
--------------------------|-------------------6-----|
--------------------------|-------------------------|


  Q    E  E  Q    E  E     Q    E  E  Q    E  E     Q    E  E  Q    E  E   
------------------------|------------------------|------------------------|
------------------------|------------------------|------------------------|
------------------------|------------------------|--6-------6--6-------5--|
--3-------3--3-------3--|--3-------3--3-------3--|------------------------|
------------------------|------------------------|------------------------|


  Q    E  E  Q    E  E     Q    E  E  Q    E  E     Q    E  E  Q    E  E   
------------------------|------------------------|------------------------|
------------------------|------------------------|------------------------|
--3-------3--3----------|------------------------|------------------------|
---------------------6--|--3-------3--3-------3--|--3-------3--3-------3--|
------------------------|------------------------|------------------------|


  Q    E  E  Q    E  E     Q    E  E  Q    E  E     Q    E  E  Q    E  E   
------------------------|------------------------|------------------------|
------------------------|------------------------|------------------------|
--6-------6--6-------5--|--3-------3--3----------|------------------------|
------------------------|---------------------6--|--3-------3--3-------3--|
------------------------|------------------------|------------------------|


  Q    E  E  Q    E  E     Q    E  E  Q    E  E     Q    E  E  Q    E  E   
------------------------|------------------------|------------------------|
------------------------|------------------------|------------------------|
---------------------5--|--6-------6--6-------5--|--3-------3--3----------|
--3-------3--3----------|------------------------|---------------------6--|
------------------------|------------------------|------------------------|


  Q    E  E  Q    E  E     Q    E  E  Q    E  E   
------------------------|------------------------|
------------------------|------------------------|
------------------------|---------------------5--|
--3-------3--3-------3--|--3-------3--3----------|
------------------------|------------------------|


  E  E  E  E  E  E  E  E     Q    E  E  E  E  E  E   
--------------------------|-------------------------|
--------------------------|-------------------------|
--6-----6-----6--------6--|--3-------3--3-----------|
--------------------------|-------------------6-----|
--------------------------|-------------------------|


  E  E  E  E  E  E  E  E     E  E  E  E  E  E  E  E   
--------------------------|--------------------------|
--------------------------|--------------------------|
--------------------------|--------------------------|
--3--3--3--3--1--1--1--1--|--------------------------|
--------------------------|--4--4--4--4--3--3--3--3--|


  E  E  E  E  E  E  E  E     E  E  E  E   E    E   E  E   
--------------------------|------------------------------|
--------------------------|------------------------------|
--------------------------|--------------(1)--(1)--------|
--------------------------|------------------------------|
--4--4--4--4--4--4--3--1--|--1--1--1--1------------1--1--|


  E  E  E  E  E  E  E  E     E  E  E  E  E  E  E  E   
--------------------------|--------------------------|
--------------------------|--------------------------|
--------------------------|--------------------------|
--------------3--3--3--3--|--3--3--3--3--3--3--3--3--|
--3--3--3--3--------------|--------------------------|


  E  E  E  E  E  E  E  E     Q    Q    Q    Q       Q    E  E  Q    E  E   
--------------------------|----------------------|------------------------|
--------------------------|----------------------|------------------------|
--------------------------|----------------------|------------------------|
--------------------------|----------------------|--3-------3--3-------3--|
--4--4--4--4--4--4--3--1--|--1----1----1---------|------------------------|


  Q    E  E  Q    E  E     Q    E  E  Q    E  E     Q    E  E  Q    E  E   
------------------------|------------------------|------------------------|
------------------------|------------------------|------------------------|
------------------------|------------------------|------------------------|
--3-------3--3-------3--|------------------------|---------------------1--|
------------------------|--4-------4--4-------3--|--1-------1--1----------|


  Q    E  E  Q    E  E     Q    E  E  Q    E  E     Q    E  E  Q    E  E   
------------------------|------------------------|------------------------|
------------------------|------------------------|------------------------|
------------------------|------------------------|------------------------|
--3-------3--3-------3--|--3-------3--3-------3--|------------------------|
------------------------|------------------------|--4-------4--4-------3--|


  Q    E  E  Q    E  E       Q    E  E  Q    E  E   
------------------------||-------------------------|
------------------------||*------------------------|
------------------------||-------------------------|
--2-------2--2-------2--||*--3-------3--3-------3--|
------------------------||-------------------------|


  Q    E  E  Q    E  E     Q    E  E  Q    E  E   
------------------------|------------------------|
------------------------|------------------------|
------------------------|------------------------|
--3-------3--3-------3--|------------------------|
------------------------|--4-------4--4-------3--|


  Q    E  E  Q    E  E       E  E  E  E  E  E  E  E   
-------------------------||--------------------------|
------------------------*||--------------------------|
-------------------------||--------------------------|
---------------------1--*||--3-----3-----3-----3-----|
--1-------1--1-----------||--------------------------|


  E  E  E  E  E  E  E  E     E  E  E  E  E  E  E  E   
--------------------------|--------------------------|
--------------------------|--------------------------|
--------------------------|--------------------------|
--3-----3-----3-----3-----|--------------------------|
--------------------------|--4-----4-----4-----4-----|


  E  E  E  E  E  E  E  E     E  E  E  E  E  E  E  E   
--------------------------|--------------------------|
--------------------------|--------------------------|
--3-----3-----3-----3-----|--------------------------|
--------------------------|--3--3--3--3--5--5--5--5--|
--1-----1-----1-----1-----|--------------------------|


  E  E  E  E  E  E  E  E     E  E  E  E  E  E  E  E   
--------------------------|--------------------------|
--------------------------|--------------------------|
--------------3--3--5--5--|--6--6--6--6--6--6--5--5--|
--6--6--6--6--------------|--------------------------|
--------------------------|--------------------------|


  Q    Q    Q    Q       Q    E  E  Q    E  E     Q    E  E  Q    E  E   
----------------------|------------------------|------------------------|
----------------------|------------------------|------------------------|
--3-------------------|------------------------|------------------------|
----------------------|--3-------3--3-------3--|--3-------3--3-------3--|
-------1----1----1----|------------------------|------------------------|


  Q    E  E  Q    E  E     Q    E  E  Q    E  E   
------------------------|------------------------|
------------------------|------------------------|
------------------------|------------------------|
------------------------|---------------------1--|
--4-------4--4-------3--|--1-------1--1----------|


  E  E  E  E  E  E  E  E     E  E  E  E  E  E  E  E   
--------------------------|--------------------------|
--5--5--5--5--3--3--3--3--|--------------------------|
--------------------------|--6--6--6--6--5--5--5--5--|
--------------------------|--------------------------|
--------------------------|--------------------------|


  E  E  E  E  E  E  E  E     E  E  E  E  E  E  Q      
--------------------------|--------------------------|
--------------------------|--------------------------|
--------------------------|--------------3--3--3s----|
--3--3--3--3--5--5--5--5--|--6--6--6--6--------------|
--------------------------|--------------------------|


  Q    Q    Q    Q       Q    E  E  Q    Q       Q    E  E  Q    Q     
----------------------|-----------------------|-----------------------|
----------------------|-----------------------|-----------------------|
--5----3--------------|-----------------------|----------3--3---------|
------------6----5----|--3-------5--5---------|--6--------------------|
----------------------|-----------------------|-----------------------|


  Q    E  E  Q    E  E     Q    E  E  Q    Q       Q    E  E  Q    E  E   
------------------------|-----------------------|------------------------|
------------------------|-----------------------|------------------------|
--5-------3--3----------|-----------------------|------------------------|
---------------------6--|--6-------5--5---------|--3------------------3--|
------------------------|-----------------------|----------6--6----------|


  Q    E  E  Q    E  E     Q    E  E  Q    E  E     Q    E  E  Q    Q     
------------------------|------------------------|-----------------------|
------------------------|------------------------|-----------------------|
---------------------6--|--6-------5--5-------3--|--3--------------------|
--3-------6--6----------|------------------------|----------6--5----3----|
------------------------|------------------------|-----------------------|


  E  E  E  E  E  E  E  E     E  E  E  E  E  E  E  E   
--------------------------|--------------------------|
--------------------------|--------------------------|
--------------------------|--------------------------|
--3--3--3--3--1--1--1--1--|--------------------------|
--------------------------|--4--4--4--4--3--3--3--3--|


  E  E  E  E  E  E  E  E     E  E  E  E  E  E  E  E   
--------------------------|--------------------------|
--------------------------|--------------------------|
--------------------------|--------------------------|
--------------------------|--------------1--1--1--1--|
--1--1--1--1--3--3--3--3--|--4--4--4--4--------------|


  E  E  E  E  E  E  E  E     E  E  E  E  E  E  E  E   
--------------------------|--------------------------|
--------------------------|--------------------------|
--------------------------|--------------5--5--5--5--|
--3--3--3--3--5--5--5--5--|--6--6--6--6--------------|
--------------------------|--------------------------|


  E  E  E  E  E  E  E  E     E  E  E  E  E  E  E  E   
--------------------------|--------------------------|
--------------------------|--------------3--3--3--3--|
--3--3--3--3--5--5--5--5--|--6--6--6--6--------------|
--------------------------|--------------------------|
--------------------------|--------------------------|


  Q    E  E  Q    E  E     Q    E  E  Q    Q       Q    E  E  Q    E  E   
------------------------|-----------------------|------------------------|
--5-------5--5-------5--|--5-------5--5---------|--5-------5--5-------5--|
------------------------|-----------------------|------------------------|
------------------------|-----------------------|------------------------|
------------------------|-----------------------|------------------------|


  Q    E  E  Q    Q         E  Q    E  E  E  Q       E  Q    E  E  E  Q     
-----------------------||-------------------------|------------------------|
--5-------5--5---------||*------------------------|------------------------|
-----------------------||-------------------------|------------------------|
-----------------------||*--3-------3-----3-------|--3-------3-----3-------|
-----------------------||-------------------------|------------------------|


  E  Q    E  E  E  Q       E  Q    E  E  E  Q     3x
------------------------|-------------------------||
------------------------|------------------------*||
------------------------|-------------------------||
------------------------|------------------------*||
--4-------4-----4-------|--1-------1-----1--------||


  E  Q    E  E  E  Q       E  Q    E  E  E  Q       E  E  Q    E  E  E  E   
------------------------|------------------------|-------------------------|
------------------------|------------------------|-------------------------|
------------------------|------------------------|-------------------------|
------------------------|--3-------3-----3-------|--3----------3--2--1--0--|
--1-------1-----1-------|------------------------|-------------------------|


  E  E  E  E  E  E  E  E     E  E  E  E  E  E  E  E   
--------------------------|--------------------------|
--------------------------|--------------------------|
--------------------------|--------------------------|
--------------------------|--------------------------|
--4--4--4--4--4--4--4--4--|--1--1--1--1--1--1--1--1--|


  Q    E  E  Q    E  E     Q    E  E  Q    E  E     Q    E  E  Q    E  E   
------------------------|------------------------|------------------------|
------------------------|------------------------|------------------------|
------------------------|----------3--3-------5--|--6-------6--6-------5--|
--3-------3--3-------6--|--6---------------------|------------------------|
------------------------|------------------------|------------------------|


  Q    E  E  Q    E  E     Q    E  E  Q    E  E     Q    E  E  Q    E  E   
------------------------|------------------------|------------------------|
------------------------|------------------------|------------------------|
--3-------3--3----------|------------------------|----------3--3-------5--|
---------------------6--|--3-------3--3-------6--|--6---------------------|
------------------------|------------------------|------------------------|


  Q    E  E  Q    E  E     Q    E  E  Q    E  E     Q    E  E  Q    E  E   
------------------------|------------------------|------------------------|
------------------------|------------------------|------------------------|
--6-------6--6-------5--|--3-------3--3----------|------------------------|
------------------------|---------------------6--|--3-------3--3-------6--|
------------------------|------------------------|------------------------|


  Q    E  E  Q    E  E     Q    E  E  Q    E  E     Q    E  E  Q    E  E   
------------------------|------------------------|------------------------|
------------------------|------------------------|------------------------|
----------3--3-------5--|--6-------6--6-------5--|--3-------3--3----------|
--6---------------------|------------------------|---------------------6--|
------------------------|------------------------|------------------------|


  Q    E  E  Q    E  E     Q    E  E  Q    E  E     Q    E  E  Q    E  E   
------------------------|------------------------|------------------------|
------------------------|------------------------|------------------------|
------------------------|----------3--3-------5--|--6-------6--6-------5--|
--3-------3--3-------6--|--6---------------------|------------------------|
------------------------|------------------------|------------------------|


  Q    E  E  Q    E  E       Q    Q    Q    Q       Q    Q    Q    Q       
------------------------||-----------------------|-----------------3-----||
------------------------||*------------3---------|-------6--------------*||
--3-------3--3----------||--------2--------------|--5---------6----------||
---------------------6--||*--3--------------3----|----------------------*||
------------------------||-----------------------|-----------------------||


   Q    Q    Q    Q       Q    Q    E  E  E  E     
-----------------------|-------------------------||
*------------3---------|-------6----------6--8--*||
--------2--------------|--5---------6--8---------||
*--3--------------3----|------------------------*||
-----------------------|-------------------------||


   |--3--|            |--3--|               |--3--|  |--3--|     
   E  E  E  Q    Q    E  E  E     Q    Q    E  E  E  E  E  E     
-------------------------------|-------------------------------||
*----------------3-------------|-------6-------------6--5--8--*||
------------2------------------|--5---------6--5--8------------||
*--3--3--3------------3--3--3--|------------------------------*||
-------------------------------|-------------------------------||


   Q    Q    Q    Q       Q    Q    Q    Q          Q    Q    Q    Q     
-----------------------|-----------------------||-----------------------|
*------------3---------|-------6----3---------*||*------------3---------|
--------2--------------|--5--------------5-----||--------2--------------|
*--3--------------3----|----------------------*||*--3--------------3----|
-----------------------|-----------------------||-----------------------|


  Q    Q    Q    Q       Q    Q    Q    Q       Q    Q    Q    Q       
----------------------|----------------------|-----------------------||
-------6----3---------|------------3---------|-------6----3---------*||
--5--------------5----|-------2--------------|--5--------------5-----||
----------------------|--3--------------3----|----------------------*||
----------------------|----------------------|-----------------------||


  Q    Q    Q    Q       Q    Q    Q    Q     
----------------------|----------------------|
------------3---------|-------6----3---------|
-------2--------------|--5--------------5----|
--3--------------3----|----------------------|
----------------------|----------------------|


    |--3--|            |--3--|               |--3--|          
    E  E  E  Q    Q    E  E  E     Q    Q    E  E  E  Q       
|-------------------------------|---------------------------||
|*----------------3-------------|-------6-------------5----*||
|------------2------------------|--5------------------------||
|*--3--3--3------------3--3--3--|------------3--3--3-------*||
|-------------------------------|---------------------------||


   |--3--|            |--3--|               |--3--|          
   E  E  E  Q    Q    E  E  E     Q    Q    E  E  E  Q       
-------------------------------|---------------------------||
*----------------3-------------|-------6-------------5----*||
------------2------------------|--5------------------------||
*--3--3--3------------3--3--3--|------------3--3--3-------*||
-------------------------------|---------------------------||


  |--3--|  |--3--|  |--3--|  |--3--|   
  E  E  E  E  E  E  E  E  E  E  E  E   
--------------------------------------|
--5--5--5--3--3--3--------------------|
--------------------6--6--6--5--5--5--|
--------------------------------------|
--------------------------------------|


  |--3--|  |--3--|  |--3--|  |--3--|                         
  E  E  E  E  E  E  E  E  E  E  E  E       W                 
--------------------------------------||--------------------|
--------------------------------------||*-------------------|
--6--6--6--5--5--5--3--3--3-----------||--------------------|
-----------------------------6--6--6--||*--3----------------|
--------------------------------------||--------------------|


  W                   W                   W                   
-------------------|-------------------|--------------------||
-------------------|-------------------|-------------------*||
-------------------|-------------------|--------------------||
--L----------------|--1----------------|-------------------*||
-------------------|-------------------|--4-----------------||


   Q.     E  Q    E  E     W                   Q.     E  Q    Q     
------------------------|-------------------|----------------------|
*------------5----------|-------------------|------------3---------|
----------5-------5--3--|-------------------|---------3-------3----|
*--3--------------------|--3----------------|--1-------------------|
------------------------|-------------------|----------------------|


  Q.     E  Q    Q         Q    E  Q.     Q       Q    E  Q.     Q     
-----------------------||----------------------|----------------------|
----------------------*||----------------------|----------------------|
------------6----------||----------------------|----------------------|
---------6-------6----*||--3-------3-----------|--3-------3-----------|
--4--------------------||----------------------|----------------------|


  Q    E  Q.     Q       Q    E  Q.     Q       Q    E  Q.     Q     
----------------------|----------------------|----------------------|
----------------------|----------------------|----------------------|
--6-------6-----------|--3-------3-----------|----------------------|
----------------------|----------------------|--3-------3-----------|
----------------------|----------------------|----------------------|


  Q    E  Q.     Q       Q    E  Q.     Q       Q    E  Q.     Q     
----------------------|----------------------|----------------------|
----------------------|----------------------|----------------------|
----------------------|--6-------6-----------|--3-------3-----------|
--3-------3-----------|----------------------|----------------------|
----------------------|----------------------|----------------------|


  Q    E  Q.     Q       Q    E  Q.     Q       Q    E  Q.     Q     
----------------------|----------------------|----------------------|
----------------------|----------------------|----------------------|
----------------------|----------------------|----------------------|
----------------------|----------------------|--6-------6------6----|
--3-------3------3----|--3-------3------3----|----------------------|


  Q    E  Q.     Q       Q    E  Q.     Q       Q    E  Q.     Q     
----------------------|----------------------|----------------------|
----------------------|----------------------|----------------------|
----------------------|----------------------|----------------------|
--3-------3------3----|--3-------3-----------|--3-------3-----------|
----------------------|----------------------|----------------------|


  Q    E  Q.     Q       Q    E  Q.     Q       Q.     E  Q    E  E   
----------------------|----------------------|-----------------------|
----------------------|----------------------|------------5----------|
--6-------6-----------|--3-------3-----------|---------5-------5--3--|
----------------------|----------------------|--3--------------------|
----------------------|----------------------|-----------------------|


  W                   Q.     E  Q    Q       Q.     E  Q    Q     
-------------------|----------------------|----------------------|
-------------------|------------3---------|----------------------|
-------------------|---------3-------3----|------------6---------|
--3----------------|--1-------------------|---------6-------6----|
-------------------|----------------------|--4-------------------|


  Q.     E  Q    E  E     W                   Q.     E  Q    Q     
-----------------------|-------------------|----------------------|
------------5----------|-------------------|------------3---------|
---------5-------5--3--|-------------------|---------3-------3----|
--3--------------------|--3----------------|--1-------------------|
-----------------------|-------------------|----------------------|


  Q.     E  Q    Q       Q.     E  Q    E  E     W                 
----------------------|-----------------------|-------------------|
----------------------|------------5----------|-------------------|
------------6---------|---------5-------5--3--|-------------------|
---------6-------6----|--3--------------------|--3----------------|
--4-------------------|-----------------------|-------------------|


  Q.     E  Q    Q       Q.     E  Q    Q       Q.     E  Q    E  E   
----------------------|----------------------|-----------------------|
------------3---------|----------------------|------------5----------|
---------3-------3----|------------6---------|---------5-------5--3--|
--1-------------------|---------6-------6----|--3--------------------|
----------------------|--4-------------------|-----------------------|


  W                   W                   W                 
-------------------|-------------------|-------------------|
-------------------|-------------------|-------------------|
-------------------|--2----------------|--3----------------|
--3----------------|-------------------|-------------------|
-------------------|--0----------------|--1----------------|


  W                   W                  
-------------------|-------------------||
-------------------|-------------------||
-------------------|-------------------||
--3----------------|--L----------------||
-------------------|-------------------||




Duration Legend
---------------
W - whole
H - half
Q - quarter
E - 8th
S - 16th
T - 32nd
X - 64th
. - note dotted
|-n-|  - n-tuplets


Tablature Legend
----------------
L - tied note
x - dead note
g - grace note
(n) - ghost note
> - accentuded note
NH - natural harmonic
AH - artificial harmonic
TH - tapped harmonic
SH - semi harmonic
PH - pitch harmonic
h - hammer on
p - pull off
b - bend
br - bendRelease
pb - preBend
pbr - preBendRelease
brb - bendReleaseBend
\n/ - tremolo bar dip
\n - tremolo bar dive
-/n - tremolo bar Release up
/n\ - tremolo bar inverted dip
/n - tremolo bar return
-\n - tremolo bar Release down
S - shift slide
s - legato slide
/ -  slide into from below or out of upwards
\ -  slide into from above or out of downwards
~ - vibrato
W - wide vibrato
tr - trill
TP - tremolo picking
T - tapping
S - slap
P - pop
< - fade in
^ - brush up
v - brush down





Comments


Popular Baroness tabs & chords
Swollen And Halo 2 Bass Tabs
Bullheads Psalm 1 Tabs
Grad 1 Tabs
Grad 2 Tabs
Green Theme Tabs
Isak Tabs
March To The Sea Tabs
O'er Hell And Hide Tabs
Rays On Pinion Intro Tabs
Wanderlust Tabs


Song lyrics



↑ Back to top | Tablatures and chords are parodies/interpretations of the original songs. You may use it for private study, scholarship, research or language learning purposes only
© 2014 AZChords.com Contact us | Privacy policy | DMCA | Add/correct tabs | Request tabs | Top 50 tabs