>
 >
Rays On Pinion

Rays On Pinion Guitar Tabs

Baroness - Rays On Pinion chords, tabs, tablatures, lyrics

Guitar lessons | Add/correct | Request | Top 50 tabs Artists:  A B C D E F G H I J K L M N O P Q R S T U V W X Y Z 0-9

Rays On Pinion Guitar Tabs – Baroness

CD, Sheet music, Poster

Do you like Rays On Pinion? Share with your friends now
Tabs
Well, this is as much as I could figure out. Sorry about the incompleteness, but I just 
could not get the solo, or all those background noises in the intro.

FingerPicked or rake/sweep
D|-----------------------------------------|
A|---13------13-------13-----13------------|
F|-----12------12-------12-----12----------| x2
C|--------10------10-------10-----10-------|
G|-----------------------------------------|
C|-----------------------------------------|

D|-----------------------------------------|
A|---11------11------11------11------------|
F|-----10------10------10------10----------|
C|--------8-------8-------8-------8--------|x2
G|-----------------------------------------|
C|-----------------------------------------|

D|-----------------------------------------|
A|---8------8------8------8----------------|
F|----7------7------7-------7--------------|
C|------5-------5-----5-------5------------|x 4
G|-----------------------------------------|
C|-----------------------------------------|

C-----5-0h5-6p5-0h5-7p5-------------------|
Play whole thing once, then

D|-----------------------------------------|
A|---13-----13--13s/11----11--11s/8--------|
F|-----12-----12------10----10-------------|
C|-----------------------------------------|
G|-----------------------------------------|
C|-----------------------------------------|

D|-----------------------------------------|
A|---8---8-8----8--8---8-------------------|
F|----7---7--7---7--7-7-7--7-7--7s12-------|
C|-------------------0-----5-5-------------|
G|-----------------------------------------|
C|-----------------------------------------|
x times a bunch

D|-5h7-5-3-3h5---3h5-3-2-2h3---2h3-2-0-2-0--|
A|-----------------------------------------3|
F|------------------------------------------|
C|------------------------------------------|
G|------------------------------------------|
C|------------------------------------------|
x1
And now, an arpeggiated A minor chord.

D|-----------------------------------------|
A|---------1-----1--------1s4-4------------|
F|-------2---2-----2-----------------------|
C|-----2------2------2---------------------|
G|---0---------0-------0-------------------|
C|-0---------------------------------------|

D|-----------------------------------------|
A|---------1------1------1p0---------------|
F|-------2---2------2--------2-------------|
C|-----2------2-------2--------------------|
G|---0---------0-------0-------------------|
C|-0---------------------------------------|
times 4

D|-----------------------------------------|
A|--5-5-3-5--3-5-3-5-6-5h6p5p3-------------|
F|-----------------------------------------|
C|-----------------------------------------|
G|-----------------------------------------|
C|-----------------------------------------|

D|-----------------------------------------|
A|--5-5-3-5--3-5-3-6-5-3-5-6---------------|
F|-----------------------------------------|
C|-----------------------------------------|
G|-----------------------------------------|
C|-----------------------------------------|
X2

D|----------------------------------------------|
A|----------------------------------------------|
F|----------------------------------------------|
C|--5----3---6-----8--6s5-5---------------------|
G|--3----1---4-----6--4s3-3---------------------|
C|-----00--00----00----------0-2-3-5-5s7-7------|
                           Q.
D|----------------------------------------------|
A|----------------------------------------------|
F|----------------------------------------------|
C|--5----6--3----8--6s5-5-----------------------|
G|--3----4--1----6--4s3-3-----------------------|
C|-----00--------------------0-2-3-5-5s7-7------|
X 4 or 6... can't remember... For the second guitar, just harmonize all of the chords.

D|-----------------------------------------|
A|-----------------------------------------|
F|-----------------------------------------|
C|--5----3--6---8--6s5-------6s5-----------|
G|--3----1--4---6--4s3-------4s3-----------|
C|-----00-00--00-------000000--------------|
X 8 or 12

Ending
D|--------------| |---------------------------|
A|--------------| |---------------------------|
F|--------------| |---------------------------|
C|--------------| |---------------------------| X4
G|0--------2b^--| |---------------------------|
C|0-0-0-0--2b^--| |-0-2-3-5-5s7-7-------------|

start this after playing this twice^
D|----------------------------------|
A|----------------------------------|
F|----------------------------------|
C|-0-2-3-5-5s7-7--------------------| X 2
G|----------------------------------|
C|----------------------------------|

And finally...                                                                Let ring--|
D|--------------------------------------------------------------------------------------|
A|--------------------------------------------------------------------------------------|
F|--------------------------------------------------------------------------------------|
C|--------------------------------------------------------------------------------------|
G|-----------------0-------0----------0-------------------------------------------------|
C|-0-2-3-5-7-5-3---0-------0----------0-------------------------------------------------|

Tab meanings:
S: slide up or down the fretboard, to shown fret
Q. Hit the not very quietly
H: Hammer onto shown fret
P: Pull off to shown fret.

Well, I hope you liked it! This took me 12 and a half hours to do right, and I lost it 
twice. Sorry about leaving out the solo, but I can't quite make it sound right.





Comments


Popular Baroness tabs & chords
Swollen And Halo 2 Bass Tabs
Sea Lungs Chords
Sleep That Steels The Eye Chords
A Horse Called Golgotha Tabs
Bullhead's Psalm Tabs
Bullheads Psalm 1 Tabs
Grad Tabs
Ogeechee Hymnal Tabs
Stretchmarker Intro Tabs
Wailing Wintry Wind Tabs


Song lyrics



↑ Back to top | Tablatures and chords are parodies/interpretations of the original songs. You may use it for private study, scholarship, research or language learning purposes only
© 2014 AZChords.com Contact us | Privacy policy | DMCA | Add/correct tabs | Request tabs | Top 50 tabs