» » »

Ogeechee Hymnal Tabs (ver.1)

Artists:  A B C D E F G H I J K L M N O P Q R S T U V W X Y Z # 

Ogeechee Hymnal Tabs (ver.1)

Baroness
Rating:
0/5 (0 votes)

Tabs too difficult? Try these video lessons and learn fast.
                
As recorded by Baroness

(From the 2009 Blue Album)



Tuning: (C G C F A D)

|------------------------------------------------------------|
|------------------------------------------------------------|
|-10~~----10-12--12H14~~-----19-17-17h19~~--------19-21-22~~-|
|------------------------------------------------------------|
|------------------------------------------------------------|
|------------------------------------------------------------|
|
|------------------------------------------------------------|
|------------------------------------------------------------|
|------------------------------------------------------------|
|--------------------------12-10-10h12-14-12-11—--12-14-15~~-|
|-8~~----8-10—10h12-12-10-8----------------------------------|
|----------------------------------------------------------1~|



|-------------------------------------------------------------------|
|-------------------------------------------------------------------|
|-17~~-17-17-17-16-16--16-17-17-14-14-—14-16-16-14-12-14-12-12-11---|
|-------------------------------------------------------------------|
|-------------------------------------------------------------------|
|---------------------------------------------------------------16/-|
|
|-------------------------------------------------------------------|
|-------------------------------------------------------------------|
|-------------------------------------------------------------------|
|-11~~-11-11-11-10—10--10-11-11-11--8--8-8-10-10--8—6--8--6--6--5---|
|-------------------------------------------------------------------|
|---------------------------------------------------------------16/-|




|------------------------------------------------------------------|
|------------------------------------------------------------------|
|-10~~-10-9----------------19-17-17h19~~--------19-21-22~----------|
|----------10~~----------------------------------------------------|
|------------------------------------------------------------------|
|------------------------------------------------------------------|
|
|------------------------------------------------------------------|
|------------------------------------------------------------------|
|------------------------------------------------------------------|
|--------------------------12-10-10h12-14-12-11—--12-14-15~~-------|
|-8~~--8-7-------12-10-8-------------------------------------------|
|----------10~~-------------------------------------------------1~~|
|
|------------------------------------------------------------------|
|------------------------------------------------------------------|
|------------------------------------------------------------------|
|------------------------------------------------------------------|
|----------4----------------2-4—2h4---------------5--7—8~~---------|
|-4~~-4-3-------------------------------------------------------1~~|


|-------------------------------------------------------------------|
|-------------------------------------------------------------------|
|-17~~-17-17-17-16-16--16-17-17-14-14-—14-16-16-14-12-14-12-12-11---|
|-------------------------------------------------------------------|
|-------------------------------------------------------------------|
|---------------------------------------------------------------16/-|
|
|-------------------------------------------------------------------|
|-------------------------------------------------------------------|
|-------------------------------------------------------------------|
|-11~~-11-11-11-10—10--10-11-11-11--8--8-8-10-10--8—6--8--6--6--5---|
|-------------------------------------------------------------------|
|---------------------------------------------------------------16/-|
|
|-------------------------------------------------------------------|
|-------------------------------------------------------------------|
|-------------------------------------------------------------------|
|-------------------------------------------------------------------|
|-------------------------------------------------------------------|
|-11~~-11-11-11--10—10-10-11-11-8--8---8--10-10---8—6--8--6--6--5---|




|------------------------------------------------------------------|
|------------------------------------------------------------------|
|-10~~-10-9----------------19-17-17h19~~--------19-21-22~----------|
|----------10~~----------------------------------------------------|
|------------------------------------------------------------------|
|------------------------------------------------------------------|
|
|------------------------------------------------------------------|
|------------------------------------------------------------------|
|------------------------------------------------------------------|
|--------------------------12-10-10h12-14-12-11—--12-14-15~~-------|
|-8~~--8-7-------12-10-8-------------------------------------------|
|----------10~~-------------------------------------------------1~~|
|
|------------------------------------------------------------------|
|------------------------------------------------------------------|
|------------------------------------------------------------------|
|------------------------------------------------------------------|
|----------4----------------2-4—2h4---------------5--7—8~~---------|
|-4~~-4-3-------------------------------------------------------1~~|



|-------------------------------------------------------------------|
|-------------------------------------------------------------------|
|-17~~-17-17-17-16-16--16-17-17-14-14-—14-16-16-14-12-14-12-12-11---|
|-------------------------------------------------------------------|
|-------------------------------------------------------------------|
|---------------------------------------------------------------16/-|
|
|-------------------------------------------------------------------|
|-------------------------------------------------------------------|
|-------------------------------------------------------------------|
|-11~~-11-11-11-10—10--10-11-11-11--8--8-8-10-10--8—6--8--6--6--5---|
|-------------------------------------------------------------------|
|---------------------------------------------------------------16/-|
|
|-------------------------------------------------------------------|
|-------------------------------------------------------------------|
|-------------------------------------------------------------------|
|-------------------------------------------------------------------|
|-------------------------------------------------------------------|
|-11~~-11-11-11--10—10-10-11-11-8--8---8--10-10---8—6--8--6--6--5---|



|-----|
|-----|
|10~~-|
|-----|
|-----|
|-----|
|
|-----|
|-----|
|-----|
|-----|
|-8~~-|
|-----|








|--------------------------------------------------------------------------|
|--------------------------------------------------------------------------|
|-16~~-12~~--17~~-16~~-12~~-11~~-12~~-11~-16~~-11~~-17~~--16~~12~~-11~~-9~~|
|--------------------------------------------------------------------------|
|-17~~-10~~--18~~-17~~-10~~--9~~-10~~-9~~-17~~--9~~-18~~--17~~10~~--9~~-7~~|
|--------------------------------------------------------------------------|


Have fun.
            
Tabs too difficult? Try these video lessons and learn fast.




comments powered by Disqus
↑ Back to top | Tablatures and chords are parodies/interpretations of the original songs. You may use it for private study, scholarship, research or language learning purposes only