>
 >
Ogeechee Hymnal

Ogeechee Hymnal Guitar Tabs

Baroness - Ogeechee Hymnal chords, tabs, tablatures, lyrics

Guitar lessons | Add/correct | Request | Top 50 tabs Artists:  A B C D E F G H I J K L M N O P Q R S T U V W X Y Z 0-9

Ogeechee Hymnal Guitar Tabs – Baroness

CD, Sheet music, Poster

Do you like Ogeechee Hymnal? Share with your friends now
Tabs

As recorded by Baroness

(From the 2009 Blue Album)



Tuning: (C G C F A D)

|------------------------------------------------------------|
|------------------------------------------------------------|
|-10~~----10-12--12H14~~-----19-17-17h19~~--------19-21-22~~-|
|------------------------------------------------------------|
|------------------------------------------------------------|
|------------------------------------------------------------|
|
|------------------------------------------------------------|
|------------------------------------------------------------|
|------------------------------------------------------------|
|--------------------------12-10-10h12-14-12-11--12-14-15~~-|
|-8~~----8-1010h12-12-10-8----------------------------------|
|----------------------------------------------------------1~|



|-------------------------------------------------------------------|
|-------------------------------------------------------------------|
|-17~~-17-17-17-16-16--16-17-17-14-14-14-16-16-14-12-14-12-12-11---|
|-------------------------------------------------------------------|
|-------------------------------------------------------------------|
|---------------------------------------------------------------16/-|
|
|-------------------------------------------------------------------|
|-------------------------------------------------------------------|
|-------------------------------------------------------------------|
|-11~~-11-11-11-1010--10-11-11-11--8--8-8-10-10--86--8--6--6--5---|
|-------------------------------------------------------------------|
|---------------------------------------------------------------16/-|




|------------------------------------------------------------------|
|------------------------------------------------------------------|
|-10~~-10-9----------------19-17-17h19~~--------19-21-22~----------|
|----------10~~----------------------------------------------------|
|------------------------------------------------------------------|
|------------------------------------------------------------------|
|
|------------------------------------------------------------------|
|------------------------------------------------------------------|
|------------------------------------------------------------------|
|--------------------------12-10-10h12-14-12-11--12-14-15~~-------|
|-8~~--8-7-------12-10-8-------------------------------------------|
|----------10~~-------------------------------------------------1~~|
|
|------------------------------------------------------------------|
|------------------------------------------------------------------|
|------------------------------------------------------------------|
|------------------------------------------------------------------|
|----------4----------------2-42h4---------------5--78~~---------|
|-4~~-4-3-------------------------------------------------------1~~|


|-------------------------------------------------------------------|
|-------------------------------------------------------------------|
|-17~~-17-17-17-16-16--16-17-17-14-14-14-16-16-14-12-14-12-12-11---|
|-------------------------------------------------------------------|
|-------------------------------------------------------------------|
|---------------------------------------------------------------16/-|
|
|-------------------------------------------------------------------|
|-------------------------------------------------------------------|
|-------------------------------------------------------------------|
|-11~~-11-11-11-1010--10-11-11-11--8--8-8-10-10--86--8--6--6--5---|
|-------------------------------------------------------------------|
|---------------------------------------------------------------16/-|
|
|-------------------------------------------------------------------|
|-------------------------------------------------------------------|
|-------------------------------------------------------------------|
|-------------------------------------------------------------------|
|-------------------------------------------------------------------|
|-11~~-11-11-11--1010-10-11-11-8--8---8--10-10---86--8--6--6--5---|




|------------------------------------------------------------------|
|------------------------------------------------------------------|
|-10~~-10-9----------------19-17-17h19~~--------19-21-22~----------|
|----------10~~----------------------------------------------------|
|------------------------------------------------------------------|
|------------------------------------------------------------------|
|
|------------------------------------------------------------------|
|------------------------------------------------------------------|
|------------------------------------------------------------------|
|--------------------------12-10-10h12-14-12-11--12-14-15~~-------|
|-8~~--8-7-------12-10-8-------------------------------------------|
|----------10~~-------------------------------------------------1~~|
|
|------------------------------------------------------------------|
|------------------------------------------------------------------|
|------------------------------------------------------------------|
|------------------------------------------------------------------|
|----------4----------------2-42h4---------------5--78~~---------|
|-4~~-4-3-------------------------------------------------------1~~|



|-------------------------------------------------------------------|
|-------------------------------------------------------------------|
|-17~~-17-17-17-16-16--16-17-17-14-14-14-16-16-14-12-14-12-12-11---|
|-------------------------------------------------------------------|
|-------------------------------------------------------------------|
|---------------------------------------------------------------16/-|
|
|-------------------------------------------------------------------|
|-------------------------------------------------------------------|
|-------------------------------------------------------------------|
|-11~~-11-11-11-1010--10-11-11-11--8--8-8-10-10--86--8--6--6--5---|
|-------------------------------------------------------------------|
|---------------------------------------------------------------16/-|
|
|-------------------------------------------------------------------|
|-------------------------------------------------------------------|
|-------------------------------------------------------------------|
|-------------------------------------------------------------------|
|-------------------------------------------------------------------|
|-11~~-11-11-11--1010-10-11-11-8--8---8--10-10---86--8--6--6--5---|



|-----|
|-----|
|10~~-|
|-----|
|-----|
|-----|
|
|-----|
|-----|
|-----|
|-----|
|-8~~-|
|-----|








|--------------------------------------------------------------------------|
|--------------------------------------------------------------------------|
|-16~~-12~~--17~~-16~~-12~~-11~~-12~~-11~-16~~-11~~-17~~--16~~12~~-11~~-9~~|
|--------------------------------------------------------------------------|
|-17~~-10~~--18~~-17~~-10~~--9~~-10~~-9~~-17~~--9~~-18~~--17~~10~~--9~~-7~~|
|--------------------------------------------------------------------------|


Have fun.





Comments


Popular Baroness tabs & chords
Swollen And Halo Bass Tabs
A Horse Called Golgotha Tabs
Bullhead's Lament Tabs
Bullheads Psalm 1 Tabs
Grad 2 Tabs
Green Theme Tabs
Isak Tabs
Rays On Pinion Tabs
Teeth Of A Cogwheel Intro Tabs
Wanderlust Tabs


Song lyrics



↑ Back to top | Tablatures and chords are parodies/interpretations of the original songs. You may use it for private study, scholarship, research or language learning purposes only
© 2014 AZChords.com Contact us | Privacy policy | DMCA | Add/correct tabs | Request tabs | Top 50 tabs