» » »

Baroness, Green Tabs (ver.1)

Artists:  A B C D E F G H I J K L M N O P Q R S T U V W X Y Z # 

Green Tabs (ver.1)

Baroness Tabs
 Rating:
4/5 (4 votes)
Green lessons Tabs too difficult? Try these video lessons and learn fast
                (Theme)
Tuning: D standard

|-5----5---5----5-4--5----------------------------5----------|
|-5--7-5---5--7-5-5--5--9-7-10-7----------------7-5----------|
|-6--7-6---6--7-6-6--6--9-7-11-7----------------7-6----------|  x2
|-7--7-7---7--7-7-6--7--9-7-11-7----------------7-7----------|
|-7--5-7---7--5-7-4--7--7-5-9--5--12-11-9-7-5-4-5-7----------|
|-5----5---5----5----5----------------------------5----------|

Wah Wah

|--------------------------------------------------|
|--------------------------------------------------|
|--------------------------------------------------|
|-s11--11-9-11-9--11h12-11-9-9-----9h11------------|
|------------------------------12------------------|
|--------------------------------------------------|

|--------------------------------------------------|
|--------------------------------------------------|
|--------------------------------------------------|
|-s11--11-9-11-9--11h12-11-9-9-----9--11-11--------|
|------------------------------12------------------|
|--------------------------------------------------|


|--------------------------------------------------|
|--------------------------------------------------|
|--------------------------------------------------|
|-s14-14-s14-14-16-14-12-11-9-11-9-----------------|
|----------------------------------12-9-7-9--------|
|--------------------------------------------------|


|--------------------------------------------------|
|--------------------------------------------------|
|---------------7--6-------------------------------|
|---------------7--7-------------------------------|
|-12-11-9-7-5-4-5--7-------------------------------|
|------------------5-------------------------------|


|-5----5---5----5-4--5----------------------------5----------|
|-5--7-5---5--7-5-5--5--9-7-10-7----------------7-5----------|
|-6--7-6---6--7-6-6--6--9-7-11-7----------------7-6----------|
|-7--7-7---7--7-7-6--7--9-7-11-7----------------7-7----------|
|-7--5-7---7--5-7-4--7--7-5-9--5--12-11-9-7-5-4-5-7----------|
|-5----5---5----5----5----------------------------5----------|

Tremolo

|12--14--12----12--14--12--16--12----17--16--slide--17--14---|
|------------------------------------------------------------|
|------------------------------------------------------------|
|------------------------------------------------------------|
|------------------------------------------------------------|
|------------------------------------------------------------|


|-17--16--14--16--17---12------------------------------------|
|------------------------------------------------------------|
|------------------------------------------------------------|
|------------------------------------------------------------|
|------------------------------------------------------------|
|------------------------------------------------------------|

|-5----5---5----5-4--5----------------------------5----------|
|-5--7-5---5--7-5-5--5--9-7-10-7----------------7-5----------|
|-6--7-6---6--7-6-6--6--9-7-11-7----------------7-6----------|
|-7--7-7---7--7-7-6--7--9-7-11-7----------------7-7----------|
|-7--5-7---7--5-7-4--7--7-5-9--5--12-11-9-7-5-4-5-7----------|
|-5----5---5----5----5----------------------------5----------|
            
Submit corrections

comments powered by Disqus
↑ Back to top | Baroness Tabs for Green. Lyrics for acoustic guitar and electric guitar. Tablatures and chords are parodies/interpretations of the original songs. You may use it for private study, scholarship, research or language learning purposes only