» » »

Baroness, Grad Tabs (ver.3)

Artists:  A B C D E F G H I J K L M N O P Q R S T U V W X Y Z # 

Grad Tabs (ver.3)

Baroness Tabs
 Rating:
4/5 (4 votes)
Grad lessons Tabs too difficult? Try these video lessons and learn fast
                Most of the tabs on here for this song were pretty inaccurate, so I wanted to put up 
that I think is spot on, because it truly is a cool song.  I tabbed the major parts, enjoy!

Tuning: A# F A# D# G C

Guitar 1
riff throughout
|-------------------------------------|
|-------------------------------------|
|-------------------------------------|
|---2h4--2-h4p2p0-------0-----0---5---|
|---0-------------0h2h4-----------5---|
|---0---------------------2h4---0-5---|

2:16
|----------------------0------------------------|
|----------------------3------------------------|
|----------------------2------------------------|
|---5-4-2-4--0-2-4-0---0--let ring--------------|
|---5-4-2-4--0-2-4-0---0------------------------|
|---5-4-2-4--0-2-4-0---0------------------------|


2:49 (guitar 2)
|-------------------------------------------------------|
|-------------------------------------------------------|
|-------------------------------------------------------|
|---9h11-let ring-----11-11-11-11-11-11-11b-11b-11b-11b-|
|-------------------------------------------------------|
|-------------------------------------------------------|

Guitar 1
3:07
|-----------0------------------------------|
|-----------3------------------------------|
|-----------2------------------------------| x2
|-------2h4---2-h4p2p0-------0-----0---5---|
|----------------------0h2h4-----------5---|
|---0-0------------------------2h4---0-5---|


Guitar 1
|-----------0------------------------------------------------|
|-----------3------------------------------------------------|
|-----------2---------------------------5-5-5-5-5--4/5\4\2/4-|
|-------2h4---2-h4p2p0-------0-----0----x-x-x-x-x--x/x\x\x/x-|
|----------------------0h2h4------------3-3-3-3-3--2/3\2\0/2-|
|---0-0------------------------2h4---0-----------------------|


------------------------------|
------------------------------|
--4-4-4-4-4--3-3-3-3-3/5-5-5-5| x2
--x-x-x-x-x--x-x-x-x-x/x-x-x-x|
--2-2-2-2-2--1-1-1-1-1/3-3-3-3|
------------------------------|

Guitar 2 plays (listen for strum pattern)

|--12----10----9----8---10|
|--12----10----9----8---10|
|--12----10----9----8---10|
|--12----10----9----8---10|
|--12----10----9----8---10|
|--12----10----9----8---10|


Guitar 1

4:10
|------------------------------------------------------------------------|
|------------------------------------------------------------------------|
|--14\12--14\12-11\9/11-11----12\11-9\7/9-9----5/7/9\7--7/9/11\9--9/12\11|
|--x-\x---x-\x--x--x-x--x-----x-\x--x\x/x-x----x/x/x\x--x/x/x-\x--x/x-\x-|
|--12\10--12\10-9-\7/9--9-----10\9--7\5/7-7----3/5/7\5--5/7/9-\7--7/10\9-|
|------------------------------------------------------------------------|
            
Submit corrections

comments powered by Disqus
↑ Back to top | Baroness Tabs for Grad. Lyrics for acoustic guitar and electric guitar. Tablatures and chords are parodies/interpretations of the original songs. You may use it for private study, scholarship, research or language learning purposes only