» » »

Baroness, Grad Tabs (ver.2)

Artists:  A B C D E F G H I J K L M N O P Q R S T U V W X Y Z # 

Grad Tabs (ver.2)

Baroness Tabs
 Rating:
4/5 (4 votes)
Grad lessons Tabs too difficult? Try these video lessons and learn fast
1
                -------------------------------------------------------------------------------
                             Grad - Baroness
-------------------------------------------------------------------------------

This is my first guitar tab, so sorry for any mistakes. I don't really have any 
musical training, I've just been playing for about 6 years.
Also I tabbed this at about midnight, so there might be a few mistakes (notes missing, 
notes, stuff like that).

Tuning: Drop D one and a half steps down (B-Gb-B-E-Ab-Db) (I guess this would be drop C flat)


0:45 (one guitar, rest of band comes in at 1:34)
|--------------------------------------------------|
|--------------------------------------------------|
|--------------------------------------------------|
|--2h4---2-2h4p2p0---------------5-----------------|
|--0----------------0-2h4/5p0----5-----------------|
|--0-----------------------------5-----------------|

2:16-ish
|----------------------------------------------|
|----------------------------------------------|
|----------------------------------------------|
|---5-4-2-4--2-4-5-0---------------------------|
|---5-4-2-4--2-4-5-0---------------------------|
|---5-4-2-4--2-4-5-0---------------------------|

2:20
|--------------------------------------------------|
|--------------------------------------------------|
|--------------------------------------------------|
|--2h4---2-2h4p2p0---------------5---5---5---5-----|
|--0----------------0-2h4/5p0----5---5---5---5-----|
|--0-----------------------------5---5---5---5-----|

Break, palm muted, 2:55, didn't tab it, sorry.

3:07
|--------------------------------------------------------------|
|-------------3------------------------------------------------|
|--------------------------------------------------------------|
|---0--0--2h4--------2-2h4p2p0---------------5---5---5---5-----|
|---0--0--0---------------------0-2h4/5p0----5---5---5---5-----|
|---0--0-------------------------------------5---5---5---5-----|

That's all I've got so far, I'm still working on it so there will be updates.

| /  slide up
| \  slide down
| h  hammer-on
| p  pull-off
| ~  vibrato
| +  harmonic
| x  Mute note
===============================================================================
            
Submit corrections

comments powered by Disqus
↑ Back to top | Baroness Tabs for Grad. Lyrics for acoustic guitar and electric guitar. 1 Tablatures and chords are parodies/interpretations of the original songs. You may use it for private study, scholarship, research or language learning purposes only