>
 >
Bullheads Psalm 1

Bullheads Psalm 1 Guitar Tabs

Baroness - Bullheads Psalm 1 chords, tabs, tablatures, lyrics

Guitar lessons | Add/correct | Request | Top 50 tabs Artists:  A B C D E F G H I J K L M N O P Q R S T U V W X Y Z 0-9

Bullheads Psalm 1 Guitar Tabs – Baroness

CD, Sheet music, Poster

Do you like Bullheads Psalm 1? Share with your friends now
Tabs
Baroness - Bullheads Psalm

Track#1

Standard Tuning

Guitar1

|---------------------------------------------|
|-------8----------------8--------------------|
|-----8----7-8---------8----7-8---------------|
|-10---------------10-------------------------|
|---------------------------------------------|
|-(8)--------------(8)------------------------| x2

Guitar2 enters (0:08)
|--------10------------10---------------------|
|------8----8--------8----8-------------------|
|----8--------8----8--------8-----------------|
|-10------------10----------------------------|
|---------------------------------------------|
|---------------------------------------------|

Guitar 2 (0:12)
|------------------8----s8--------------------|
|-----------s8-------11----11--9-8~~~~~~~~~~~~|
|-8----8-10-----------------------------------|
|---------------------------------------------|
|---------------------------------------------|
|---------------------------------------------|

|---------------------------------------------|
|---------------------------------------------|
|-8----8-7----------5-----------5--7--8-------|
|----------8----------8-----------------------|
|---------------5s6---------5s6---------------|
|---------------------------------------------|

Guitar 2(0:32)
|------------------8----s8--------------------|
|-----------s8-------11----11--9-8~~~~~~~~~~~~|
|-8----8-10-----------------------------------|
|---------------------------------------------|
|---------------------------------------------|
|---------------------------------------------|

|-----------------------------------------------|
|----------------------------------8-9----------|
|-8----8-7----------7-8-10--7-8-10-----5--7--8--|
|----------8----810-----------------------------|
|-----------------------------------------------|
|-----------------------------------------------|

Guitar 3 enters (0:32)
|--------------------------------------------------------------|
|-8------9-8---------------------------------------------------|
|------------8------------7-7h8p7-5-7-5-7-7-7h8p7-5-7-5-7-8----|
|--------------8-5----5-8--------------------------------------|
|--------------------------------------------------------------|
|--------------------------------------------------------------|

|--------------------------------------------------------------|
|----------------------------------------------8-9-11b-8h9p8---|
|-7h8-----7h8p7-5---------------7-8-10--7-8-10-----------------|
|-----------------8-5-s5----810--------------------------------|
|--------------------------------------------------------------|
|--------------------------------------------------------------|

Guitar 4 enters (0:32)
|--------------------------------------------------------------|
|--------------------------------------------------------------|
|--------------------------------------------------------------|
|-5------6-5---------------------------------------------------|
|------------6------------5-5h6p5-3-5-3-5-5-5h6p5-3-5-3-5-6----|
|--------------6-3----3-5--------------------------------------|


|--------------------------------------------------------------|
|--------------------------------------------------------------|
|--------------------------------------------------------------|
|---------------------------------------------5-6--8b--5h6p5---|
|-5h6-----5h6p5-3---------------5-6-8---5-6-8------------------|
|-----------------6-3-s3----6-8--------------------------------|

Guitar 2 (0:50)
|------------8----s8-----8-10-11--11--11--11--|
|------8-------11-----------------------------|
|-8-10----------------------------------------|
|---------------------------------------------|
|---------------------------------------------|
|---------------------------------------------|

|-10--10--10--10--10--10--10--10-s11~~~~~~~~~-|
|---------------------------------------------|
|---------------------------------------------|
|---------------------------------------------|
|---------------------------------------------|
|---------------------------------------------|

Guitar 3 with some effects(0:50)
|---------------------------------------------|
|---------------------------------------------|
|-5-7-8----------10-8-7-7s8----8---8---8---8--|
|---------------------------------------------|
|-3-5-6-----------8-6-5-5s6----6---6---6---6--|
|---------------------------------------------|

|---------------------------------------------|
|---------------------------------------------|
|-7---7---7---7---7---7---7---7--s8~~~~~~~~~~-|
|---------------------------------------------|
|-5---5---5---5---5---5---5---5--s6~~~~~~~~~~-|
|---------------------------------------------|


Some parts still missing (Guitar 1)
Comment please





Comments


Popular Baroness tabs & chords
Swollen And Halo 2 Bass Tabs
A Horse Called Golgotha Tabs
A Horse Called Golgotha 1 Tabs
Blackpowder Orchard Tabs
Bullhead's Lament Tabs
Bullhead's Psalm Tabs
Grad Tabs
Green Theme Tabs
O'er Hell And Hide Tabs
Rays On Pinion Tabs


Song lyrics



↑ Back to top | Tablatures and chords are parodies/interpretations of the original songs. You may use it for private study, scholarship, research or language learning purposes only
© 2014 AZChords.com Contact us | Privacy policy | DMCA | Add/correct tabs | Request tabs | Top 50 tabs