>
 >
Million Voices

Million Voices Guitar Tabs

Barlow Girl - Million Voices chords, tabs, tablatures, lyrics

Guitar lessons | Add/correct | Request | Top 50 tabs Artists:  A B C D E F G H I J K L M N O P Q R S T U V W X Y Z 0-9

Million Voices Guitar Tabs – Barlow Girl

CD, Sheet music, Poster

Do you like Million Voices? Share with your friends now
Tabs
			                    Million Voices - BarlowGirl

Guitar Tuning: Drop D

I added a few of the guitar parts she plays from the live version, so it still goes 
along with the album also.  Any changes or questions let me know.  I know the live version 


E|---------------------------------------------------------------------------|
B|---------------------------------------------------------------------------|
G|5-55/-10-10101010--7-7-7-7-7-7-7-7-7-7-7-7-7-7-7-7-----------------5-55/-10|
D|3-33/-8--8-8-8-8---7-7-7-7-7-7-7-7-7-7-7-7-7-7-7-7-5-5-5-5-5-5-5-5-3-33/-8-|
A|3-33/-8--8-8-8-8---5-5-5-5-5-5-5-5-5-5-5-5-5-5-5-5-5-5-5-5-5-5-5-5-3-33/-8-|
D|---------------------------------------------------5-5-5-5-5-5-5-5---------|
                   P.M..............................................

E|---------------------------------------------------------------------------|
B|---------------------------------------------------------------------------|
G|1010-7-7-7-7-7-7-7-7-7-7-7-7-7-7-7-7-----------------5-55/-101010-7-7-7-7--|
D|8-8--7-7-7-7-7-7-7-7-7-7-7-7-7-7-7-7-5-5-5-5-5-5-5-5-3-33/-8-8-8--5-5-5-5--|
A|8-8--5-5-5-5-5-5-5-5-5-5-5-5-5-5-5-5-5-5-5-5-5-5-5-5-3-33/-8-8-8--5-5-5-5--|
D|-------------------------------------5-5-5-5-5-5-5-5-----------------------|
P.M...................................................              ........

E|---------------------------------------------------------------------------|
B|---------------------------------------------------------------------------|
G|-7-7-7-7-7-7-7-7-7-7-7-----------------5-55/-101010-7-7-7-7-7-7-7-7-7-7-7--|
D|-7-7-7-7-7-7-7-7-7-7-7-5-5-5-5-5-5-5-5-3-33/-8-8-8--7-7-7-7-7-7-7-7-7-7-7--|
A|-5-5-5-5-5-5-5-5-5-5-5-5-5-5-5-5-5-5-5-3-33/-8-8-8--5-5-5-5-5-5-5-5-5-5-5--|
D|-----------------------5-5-5-5-5-5-5-5-------------------------------------|
P.M.....................................              .....................

E|---------------------------------------------------------------------------|
B|---------------------------------------------------------------------------|
G|7-7-7-7-----------------5-55/-101010--5--5-555/7x7-777\3--3-333/-10x101010-|
D|5-5-5-5-5-5-5-5-5-5-5-5-3-33/-8-8-8---5--5-555/7x7-777\3--3-333/-10x101010-|
A|5-5-5-5-5-5-5-5-5-5-5-5-3-33/-8-8-8---3--3-333/5x5-555\1--1-111/-8-x8-8-8--|
D|--------5-5-5-5-5-5-5-5----------------------------------------------------|
P.M......................

E|----------------------------------------------------------------|
B|----------------------------------------------------------------|
G|9--5--5-555/7x7-77xx-7-7-7/-9-9-9/-10-10-10---------------------|
D|9--5--5-555/7x7-77xx-7-7-7/-9-9-9/-10-10-10-0-0-0/-2-2-2/-3-3-3-|
A|7--3--3-333/5x5-55xx-5-5-5/-7-7-7/-8--8--8--0-0-0/-2-2-2/-3-3-3-|
D|--------------------------------------------0-0-0/-2-2-2/-3-3-3-|



E|------------------------------------------------|
B|------------------------------------------------|
G|-77--77--77/-12-12\10-101010--------------------|
D|-77--77--77/-12-12\10-101010-88-88-55-55--88-77-|
A|-55--55--55/-10-10\8--8-8-8--88-88-55-55--88-77-|
D|-----------------------------88-88-55-55--88-77-|



E|----------------------------------------------------------------------------|
B|----------------------------------------------------------------------------|
G|-14-14-14-13-13-13-14-14-14-13-13-13\-7-7-7-7-14-14-14-13-13-13-14-14-14-14-|
D|-14-14-14-13-13-13-14-14-14-13-13-13\-5-7-7-7-14-14-14-13-13-13-14-14-14-14-|
A|-12-12-12-11-11-11-12-12-12-11-11-11\-5-5-5-5-12-12-12-11-11-11-12-12-12-12-|
D|----------------------------------------------------------------------------|

E|-------------|
B|-------------|
G|-14-14-14-14-|
D|-14-14-14-14-|
A|-12-12-12-12-|
D|-------------|


You can add the wah pedal section to it like she does live or use the same pattern

E|-------------------------------------------------------------------------|
B|-------------------------------------------------------------------------|
G|-7-7-7-7-7-7-7-7-7-7-7-7-7-7-7-7-----------------5-55/-101010-7-7-7-7-7-7|
D|-7-7-7-7-7-7-7-7-7-7-7-7-7-7-7-7-5-5-5-5-5-5-5-5-3-33/-8-8-8--7-7-7-7-7-7|
A|-5-5-5-5-5-5-5-5-5-5-5-5-5-5-5-5-5-5-5-5-5-5-5-5-3-33/-8-8-8--5-5-5-5-5-5|
D|---------------------------------5-5-5-5-5-5-5-5-------------------------|
 P.M..............................................            P.M...........


Use fast alternate picking for each of the chords starting at 12 in that order
 about 15-20x each; and also with the wah pedal. Listening to her live helps.
E|-------------------------------------------------------------------------|
B|-------------------------------------------------------------------------|
G|-7-7-7-7-7-7-7-7-7-----------------5-55/-101010--14--15--12--14--15--12\-|
D|-7-7-7-7-7-7-7-7-7-5-5-5-5-5-5-5-5-3-33/-8-8-8---12--12--12--12--12--12\-|
A|-5-5-5-5-5-5-5-5-5-5-5-5-5-5-5-5-5-3-33/-8-8-8---------------------------|
D|-------------------5-5-5-5-5-5-5-5---------------------------------------|
P.M.................................


E|--------------------------------------------------------------------------|
B|--------------------------------------------------------------------------|
G|5--5-555/7x7-777\-3--3-333/10x10-10109--5--5-555/7x7-77xx-777/-999/101010/|
D|5--5-555/7x7-777\-3--3-333/10x10-10109--5--5-555/7x7-77xx-777/-999/101010/|
A|3--3-333/5x5-555\-1--1-111/8-x8--8-8-7--3--3-333/5x5-55xx-555/-777/8-8-8-/|
D|--------------------------------------------------------------------------|

E|------------------------------------------------|
B|------------------------------------------------|
G|-111111/-141414\-777/-999/-101010---------------|
D|-111111/-141414\-777/-999/-101010-000/-222/-333-|
A|-9-9-9-/-121212\-555/-777/-8-8-8--000/-222/-333-|
D|----------------------------------000/-222/-333-|



E|------------------------------------------------|
B|------------------------------------------------|
G|-77--77--77/-12-12\10-101010--------------------|
D|-77--77--77/-10-10\10-101010-88-88-55-55--88-77-|
A|-55--55--55/-10-10\8--8-8-8--88-88-55-55--88-77-|
D|-----------------------------88-88-55-55--88-77-|



E|---------------------------------------------------------------------------|
B|---------------------------------------------------------------------------|
G|-14-14-14-12-12-12-14-14-14-12-12-12\-7-7-7-7-14-14-14-12-12-12-14-14-14-14|
D|-14-14-14-12-12-12-14-14-14-12-12-12\-5-7-7-7-14-14-14-12-12-12-14-14-14-14|
A|-12-12-12-10-10-10-12-12-12-10-10-10\-5-5-5-5-12-12-12-10-10-10-12-12-12-12|
D|---------------------------------------------------------------------------|

E|---------------------------------------------------------------------------|
B|---------------------------------------------------------------------------|
G|-14-14-14-14-15-15-15-15-15-15-15-15-17-17-17-17-17-17-17-17-19-19-19-19-19|
D|-14-14-14-14-15-15-15-15-15-15-15-15-17-17-17-17-17-17-17-17-19-19-19-19-19|
A|-12-12-12-12-13-13-13-13-13-13-13-13-15-15-15-15-15-15-15-15-17-17-17-17-17|
D|---------------------------------------------------------------------------|

E|------------------------------------|you can leave it on the 19 also instead
B|------------------------------------|                        19
G|-19-19-19\-14-14-14-12-12-12-14\12--|                        17
D|-19-19-19\-14-14-14-12-12-12-14\12--|of going back down; your choice
A|-17-17-17\-12-12-12-10-10-10-12\10--|
D|------------------------------------|


 Where they are singing only, but live she plays these chords in the background
E|-------------------------------------------------------------------------|
B|-------------------------------------------------------------------------|
G|-------------------------------------------------------------------------|
D|---7-----10----7h8p7h8p---7-----10----7h8p7h8p---7-----10----7h8p7h8p---7|
A|--5-----8-----5----------5-----8-----5----------5-----8-----5----------5-|
D|-0-----8-----5----------0-----8-----5----------0-----8-----5----------0--|


Again listen to her live to get the exact timings and rhythms
E|----------------------|
B|----------------------|
G|----------------------|
D|---10-10/12~~~~~~~~~~-|
A|--8-------------------|
D|-8--------------------|


E|------------------------------------------------|
B|------------------------------------------------|
G|-77--77--77/-12-12\10-101010--------------------|
D|-77--77--77/-12-12\10-101010-88-88-55-55--88-77-|
A|-55--55--55/-10-10\8--8-8-8--88-88-55-55--88-77-|
D|-----------------------------88-88-55-55--88-77-|


E|-------------------------------------------------------------------------|
B|-------------------------------------------------------------------------|
G|-77--77--77/-12-12\10-101010--77--77--77/-1212-1515\1414--77--77--77/-12-|
D|-77--77--77/-12-12\10-101010--77--77--77/-1212-1515\1414--77--77--77/-12-|
A|-55--55--55/-10-10\8--8-8-8---55--55--55/-1010-1313\1212--55--55--55/-10-|
D|-------------------------------------------------------------------------|


E|------------------------------------------------------------------|
B|------------------------------------------------------------------|
G|12\10-101010--77--77--77/-1212-1515\1414\--Let it Ring out--------|
D|12\10-101010--77--77--77/-1212-1515\1414\--0----------------------|
A|10\8--8-8-8---55--55--55/-1010-1313\1214\--0----------------------|
D|-------------------------------------------0----------------------|





Comments


Popular Barlow Girl tabs & chords
Beautiful Ending Chords
Beautiful Ending 2 Chords
Clothes Chords
I Need You To Love Me 1 Chords
Mirror Chords
Never Alone 7 Chords
Song For The Broken Chords
Stay With Me Chords
Never Alone 1 Tabs
Song For The Broken Ukulele


Song lyrics



↑ Back to top | Tablatures and chords are parodies/interpretations of the original songs. You may use it for private study, scholarship, research or language learning purposes only
© 2014 AZChords.com Contact us | Privacy policy | DMCA | Add/correct tabs | Request tabs | Top 50 tabs